Oops, an error
Loading. Please wait.

Forsaken intro tab

version 1
version 1

Intro

Whole song

  • This is a version that allows you to play the orig... Show more

Interactive

by Skillet
9,987 views 3 this week
19 commentsread comments
1 2 3 4 5
x 7
add to favorites
×
Save as Personal and add changes to this tab that will be seen only by you. Learn more ›
×
You can save this tab as Personal to edit and correct it or add notes. All changes will be seen only by you. Learn more »
launch autoscroll
font size
0
reset
how to read this tab
guitar tuner
edit
Autoscroll
slow
fast
+/-
esc
set tempo
stop
Skillet "Forsaken"  (Intro)
Tuning: Normal
Tabbed by: Beefy
/ Slid
Please rate this tab. Thank you

E----------------------------------------
B----------------------------------------
G----------------------------------------
D-55-55-5/6-5-5/6----55-55-5/6—--5-5/8—--   
A-33-33-3/4-3-3/4----33-33-3/4---3-3/6---
E----------------------------------------

E----------------------------------------
B----------------------------------------
G----------------------------------------
D-55-55-5/6-5-5/6----55-55-5/6—--5-5/8—--   
A-33-33-3/4-3-3/4----33-33-3/4---3-3/6---
E-33-33-3/4-3-3/4----33-33-3/4---3-3/6---

            
            
Suggest correction
Creating personal tab
Creating personal tab
You can edit any tab online and save it as your Personal.

You can edit, replace or remove any tab part or add personal notes – all changes will be seen only by you.

Personal tabs can be accessed anytime from any device, even offline.
Learn more »
comments
print report bad tab
19 comments total. Showing first comments.
0 reply
yoski 10 Mar 16, 2004 07:00 PM

great tab.. more please....more!!

0 reply
roo6339 81 Apr 29, 2004 08:00 PM

where you have:
E----------------------------------------
B----------------------------------------
G----------------------------------------
D-55-55-5/6-5-5/6----55-55-5/6?--5-5/8?--
A-33-33-3/4-3-3/4----33-33-3/4---3-3/6---
E----------------------------------------

it sounds better as:
E----------------------------------------
B----------------------------------------
G----------------------------------------
D-55-55-6/5-5-5/6----55-55-6/5?--5-5/8?--
A-33-33-4/5-3-3/4----33-33-4/3---3-3/6---
E----------------------------------------

other then that, great work!

-1 reply
shecteromen5 15 Sep 22, 2005 11:03 AM

This is how ist played but make sure you get your rythem right

E-----
B-----

G-----6\5xx/6-----6\5xx/6-----
D-----4\3xx/4-----4\3xx/4-----
A-33333xx-----333
33xx-----6~-----
E-33333
xx-----33333xx-----6~----
-

guest
Wanna post a correction for this tab? Suggest correction