Oops, an error
Loading. Please wait.

Forsaken tab

version 3
version 3

Whole song

  • This is a version that allows you to play the orig... Show more

Interactive

by Skillet
43 views 3 this week
1 commentread comment
1 2 3 4 5
3 more votes to show rating
add to favorites
×
Save as Personal and add changes to this tab that will be seen only by you. Learn more ›
×
You can save this tab as Personal to edit and correct it or add notes. All changes will be seen only by you. Learn more »
launch autoscroll
font size
0
reset
how to read this tab
guitar tuner
edit
Autoscroll
slow
fast
+/-
esc
set tempo
stop
About this tab version
This is a version that allows you to play the original song faster, because all of the super-complicated chords are made easier into bar-chords, and it sounds identically the same. Was this info helpful? Yes No
[Intro]
D|-----------------------------------------------|
A|-----------------------------------------------|
F|-----------------------------------------------|
C|---0-0---0-0--0-87--78---0-0---0-0--0-87-710---| x4
G|---0-0---0-0--0-87--78---0-0---0-0--0-87-710---|
C|---0-0---0-0--0-87--78---0-0---0-0--0-87-710---|

[Verse]
D|---------------------3---------------|
A|---------------------t---------------|
F|---------------------i---------------|
C|---0-0--0-8-0--888---m---3333/5555---|x2
G|---0-0--0-8-0--888---e---3333/5555---|
C|---0-0--0-8-0--888---s---3333/5555---|

[Pre-Chorus]
(Acoustic)

[Chorus]
D|------------------------3------------|
A|------------------------t------------|
F|------------------------i------------|
C|---0---10-10-10--xx-5---m---10---5---|x2
G|---0---10-10-10--xx-5---e---10---5---|
C|---0---10-10-10--xx-5---s---10---5---|

[Intro]
(Again)
D|-----------------------------------------------|
A|-----------------------------------------------|
F|-----------------------------------------------|
C|---0-0---0-0--0-87--78---0-0---0-0--0-87-710---| x4
G|---0-0---0-0--0-87--78---0-0---0-0--0-87-710---|
C|---0-0---0-0--0-87--78---0-0---0-0--0-87-710---|

[Verse #2]
(There's a guitar that does feedback during the whole verse)
D|-------------------|
A|-------------------|
F|-------------------|
C|---x-x---xx--xxx---| x8
G|---x-x---xx--xxx---|
C|---x-x---xx--xxx---|

[Pre-Chorus]
(Acoustic)

[Chorus]
D|------------------------3------------|
A|------------------------t------------|
F|------------------------i------------|
C|---0---10-10-10--xx-5---m---10---5---|x2
G|---0---10-10-10--xx-5---e---10---5---|
C|---0---10-10-10--xx-5---s---10---5---|

[Post-Bridge]
(Yeah, yeah, yeah . . .)
D|------------------------3------------|
A|------------------------t------------|
F|------------------------i------------|
C|---0---10-10-10--xx-5---m---10---5---|x2
G|---0---10-10-10--xx-5---e---10---5---|
C|---0---10-10-10--xx-5---s---10---5---|

[Bridge]
(Forsaaaaaaaaake!)
D|--------------------------|----------------------------|
A|--------------------------|----------------------------|
F|--------------------------|----------------------------|
C|---0-0--xxx-0-0--xxx--8---|---0-0--xxx-0-0--xxx-6699---|x4
G|---0-0--xxx-0-0--xxx--8---|---0-0--xxx-0-0--xxx-6699---|
C|---0-0--xxx-0-0--xxx--8---|---0-0--xxx-0-0--xxx-6699---|

D|-----------------|
A|-----------------|
F|-----------------|
C|---0-0--0-0--0---|
G|---0-0--0-0--0---|
C|---0-0--0-0--0---|

[Solo]
D|-------------------------------3----------------------------|
A|-------------------------------t----------------------------|
F|---1010101010---9999-----------i---1099-1010-99-14----------|
C|---------------------33--555---m----------------------------|x2
G|-------------------------------e----------------------------|
C|-------------------------------s----------------------------|

[Verse #1]
(Repetition of "I recall going madly . . .")
D|---------------------3---------------|
A|---------------------t---------------|
F|---------------------i---------------|
C|---0-0--0-8-0--888---m---3--333/55---|
G|---0-0--0-8-0--888---e---3--333/55---|
C|---0-0--0-8-0--888---s---3--333/55---|

[Chorus]
D|------------------------3------------|
A|------------------------t------------|
F|------------------------i------------|
C|---0---10-10-10--xx-5---m---10---5---|x2
G|---0---10-10-10--xx-5---e---10---5---|
C|---0---10-10-10--xx-5---s---10---5---|

[Post-Bridge]
(Yeah, yeah, yeah . . .)
D|------------------------3------------|
A|------------------------t------------|
F|------------------------i------------|
C|---0---10-10-10--xx-5---m---10---5---|x2
G|---0---10-10-10--xx-5---e---10---5---|
C|---0---10-10-10--xx-5---s---10---5---|

[Outro]
D|--------------------------|----------------------------|
A|--------------------------|----------------------------|
F|--------------------------|----------------------------|
C|---0-0--xxx-0-0--xxx--8---|---0-0--xxx-0-0--xxx-6699---|x4
G|---0-0--xxx-0-0--xxx--8---|---0-0--xxx-0-0--xxx-6699---|
C|---0-0--xxx-0-0--xxx--8---|---0-0--xxx-0-0--xxx-6699---|

D|---------------------------|
A|---------------------------|
F|---------------------------|
C|---0-0--xxx-0-0--xxx--00---|
G|---0-0--xxx-0-0--xxx--00---|
C|---0-0--xxx-0-0--xxx--00---|



************************************

 
| /  Slide up
| x  Dead note
 

************************************

            
            
Suggest correction
Creating personal tab
Creating personal tab
You can edit any tab online and save it as your Personal.

You can edit, replace or remove any tab part or add personal notes – all changes will be seen only by you.

Personal tabs can be accessed anytime from any device, even offline.
Learn more »
Give kudos to tab author, rate the tab!
1 2 3 4 5
comments
print report bad tab
1 comment total.
0 reply
murallafacudiaz 922 May 07, 2017 07:16 AM

Wrong mate

guest
You may want to rate the tab now too:
select rating
Wanna post a correction for this tab? Suggest correction