Oops, an error
Loading. Please wait.

Good To Be Alive tab

version 1
version 1

Whole song

by Skillet
1,492 views 3 this week
7 commentsread comments
1 2 3 4 5
x 5
add to favorites
×
Save as Personal and add changes to this tab that will be seen only by you. Learn more ›
×
You can save this tab as Personal to edit and correct it or add notes. All changes will be seen only by you. Learn more »
launch autoscroll
font size
0
reset
how to read this tab
guitar tuner
edit
Autoscroll
slow
fast
+/-
esc
set tempo
stop
-------------------------------------------------------------------------------
                    Good To Be Alive - Skillet - Rise(2013)
-------------------------------------------------------------------------------
Tabbed by: Batman
Tuning: Drop C

Intro/Verse - Rhythm Guitar
D|---------------|
A|---------------|
F|---------------|about 24x
C|---------------|
G|5-555-555-5-5-5|
C|---------------|
PM...............|

Pre-Chorus - Rhythm Guitar
D|------------------------------------------|
A|------------------------------------------|
F|7-----------7-----------7-----------------|
C|7--7--5--7--7--7--5--7--7--7--5--5-5-5-5-5|
G|5--7--5--7--5--7--5--7--5--7--5--5-5-5-5-5|
C|---7--5--7-----7--5--7-----7--5--5-5-5-5-5|

Chorus - Rhythm Guitar
D|----------------------------------|  |-------------------|
A|----------------------------------|  |-------------------|
F|------------------7-7-7-7---------|3x|-------------------|
C|9-9-9-9--5-5-5-5--7-7-7-7--7-7-7-7|  |9-9-9-9--5-5-5-5--7|
G|9-9-9-9--5-5-5-5--5-5-5-5--7-7-7-7|  |9-9-9-9--5-5-5-5--7|
C|9-9-9-9--5-5-5-5-----------7-7-7-7|  |9-9-9-9--5-5-5-5--7|

Post-Chorus/Verse - Rhythm Guitar
D|---------------|
A|---------------|
F|---------------|about 20x
C|---------------|
G|5-555-555-5-5-5|
C|---------------|
PM...............|

Pre-Chorus - Rhythm Guitar
D|------------------------------------------|
A|------------------------------------------|
F|7-----------7-----------7-----------------|
C|7--7--5--7--7--7--5--7--7--7--5--5-5-5-5-5|
G|5--7--5--7--5--7--5--7--5--7--5--5-5-5-5-5|
C|---7--5--7-----7--5--7-----7--5--5-5-5-5-5|

Chorus - Rhythm Guitar
D|----------------------------------|  |---------------------------------|
A|----------------------------------|  |---------------------------------|
F|------------------7-7-7-7---------|3x|---------------------------------|
C|9-9-9-9--5-5-5-5--7-7-7-7--7-7-7-7|  |9-9-9-9--5-5-5-5--7-7-7-7-7-7-7-7|
G|9-9-9-9--5-5-5-5--5-5-5-5--7-7-7-7|  |9-9-9-9--5-5-5-5--7-7-7-7-7-7-7-7|
C|9-9-9-9--5-5-5-5-----------7-7-7-7|  |9-9-9-9--5-5-5-5--7-7-7-7-7-7-7-7|

Interlude/Bridge - Rhythm Guitar
D|-------------|
A|-------------|
F|---------6--7|3x
C|4--5--7--6--7|
G|4--5--7--4--5|
C|4--5--7------|

Solo #1 - Lead Guitar
D|-----------------------------------------------|
A|------------------15-15--15-14-15--17-17-15-15/|
F|/12-12-11--12-11-------------------------------|
C|-----------------------------------------------|
G|-----------------------------------------------|
C|-----------------------------------------------|
 |
 |Rhythm Guitar *(This section might be played an
 |octave lower on the top three strings. I can't tell.)*
D|----------------------------------------|  |D|--------------------------------|
A|----------------------------------------|  |A|--------------------------------|
F|9-9-9-9-9-9-9-9--12-12-12-12-12-12-12-12|or|F|--------------------------------|
C|9-9-9-9-9-9-9-9--12-12-12-12-12-12-12-12|  |C|2-2-2-2-2-2-2-2--5-5-5-5-5-5-5-5|
G|7-7-7-7-7-7-7-7--10-10-10-10-10-10-10-10|  |G|2-2-2-2-2-2-2-2--5-5-5-5-5-5-5-5|
C|----------------------------------------|  |C|2-2-2-2-2-2-2-2--5-5-5-5-5-5-5-5|

Interlude/Bridge Again - Rhythm Guitar
D|-------------|
A|-------------|
F|---------6--7|3x
C|4--5--7--6--7|
G|4--5--7--4--5|
C|4--5--7------|

Solo #2 - Lead Guitar
D|-------------------------------------17-17-14----|
A|--------------------15-15--15-14-15-----------17/|
F|/12-12-11--12-11---------------------------------|
C|-------------------------------------------------|
G|-------------------------------------------------|
C|-------------------------------------------------|
 |
 |Rhythm Guitar
D|----------------------------------------|  |D|--------------------------------|
A|----------------------------------------|  |A|--------------------------------|
F|9-9-9-9-9-9-9-9--12-12-12-12-12-12-12-12|or|F|--------------------------------|
C|9-9-9-9-9-9-9-9--12-12-12-12-12-12-12-12|  |C|2-2-2-2-2-2-2-2--5-5-5-5-5-5-5-5|
G|7-7-7-7-7-7-7-7--10-10-10-10-10-10-10-10|  |G|2-2-2-2-2-2-2-2--5-5-5-5-5-5-5-5|
C|----------------------------------------|  |C|2-2-2-2-2-2-2-2--5-5-5-5-5-5-5-5|

Pre-Chorus - Rhythm Guitar
D|------------------------------|
A|------------------------------|
F|7-----------7-----------------|
C|7--7--5--7--7--7--5--5-5-5-5-5|
G|5--7--5--7--5--7--5--5-5-5-5-5|
C|---7--5--7-----7--5--5-5-5-5-5|

Chorus - Rhythm Guitar
D|----------|  |-------|
A|----------|  |-------|
F|------7---|3x|-------|
C|9--5--7--7|  |9--5--7|
G|9--5--5--7|  |9--5--7|
C|9--5-----7|  |9--5--7|

Ending - Rhythm Guitar
D|-------------|  |-------|
A|-------------|  |-------|
F|---------6--7|3x|-------|
C|4--5--7--6--7|  |4--5--7|
G|4--5--7--4--5|  |4--5--7|
C|4--5--7------|  |4--5--7|

Thanks
Please rate
Peace out
           -Jon

            
            
Suggest correction
Creating personal tab
Creating personal tab
You can edit any tab online and save it as your Personal.

You can edit, replace or remove any tab part or add personal notes – all changes will be seen only by you.

Personal tabs can be accessed anytime from any device, even offline.
Learn more »
comments
print report bad tab
7 comments total. Showing first comments.
+1 reply
xXWHIPxxLashXx 85 Nov 16, 2013 01:19 PM

great tab!

+1 reply
notgonnadie 466 Dec 15, 2013 06:11 PM, edited at 11:11 pm

Wicked tab, man! Love it. Great band

0 reply
kodydelmonte 21 Aug 11, 2015 05:38 PM

Excellent tab, bro. That part you weren't sure about is in the higher octave.

guest
You may want to rate the tab now too:
select rating
Wanna post a correction for this tab? Suggest correction