Oops, an error
Loading. Please wait.

Good To Be Alive Tab

version 2
version 2

Whole song

25 views 3 this week
no commentswrite comment
1 2 3 4 5
3 more votes to show rating
add to favorites
launch autoscroll
font size
0
reset
how to read this tab
guitar tuner
Autoscroll
slow
fast
+/-
esc
set tempo
stop
Help us to improve Ultimate-Guitar.com Take our survey!
×
Author
Difficulty
Tuning
novice
D A D G B E
I did not make this tab, I only re-tabbed for drop D instead of drop C.
The original tab was posted by GuitarDude0921.

[Intro/Verse] - Rhythm Guitar
e|---------------|
B|---------------|
G|---------------|about 24x
D|---------------|
A|3-333-333-3-3-3|
D|---------------|
PM...............|

[Pre-Chorus] - Rhythm Guitar
e|------------------------------------------|
B|------------------------------------------|
G|5-----------5-----------5-----------------|
D|5--5--3--5--5--5--3--5--5--5--3--3-3-3-3-3|
A|3--5--3--5--3--5--3--5--3--5--3--3-3-3-3-3|
D|---5--3--5-----5--3--5-----5--3--3-3-3-3-3|

[Chorus] - Rhythm Guitar
e|----------------------------------|  |-------------------|
B|----------------------------------|  |-------------------|
G|------------------5-5-5-5---------|3x|-------------------|
D|7-7-7-7--3-3-3-3--5-5-5-5--5-5-5-5|  |7-7-7-7--3-3-3-3--5|
A|7-7-7-7--3-3-3-3--3-3-3-3--5-5-5-5|  |7-7-7-7--3-3-3-3--5|
D|7-7-7-7--3-3-3-3-----------5-5-5-5|  |7-7-7-7--3-3-3-3--5|

[Post-Chorus/Verse] - Rhythm Guitar
e|---------------|
B|---------------|
G|---------------|about 20x
D|---------------|
A|3-333-333-3-3-3|
D|---------------|
PM...............|

[Pre-Chorus] - Rhythm Guitar
e|------------------------------------------|
B|------------------------------------------|
G|5-----------5-----------5-----------------|
D|5--5--3--5--5--5--3--5--5--5--3--3-3-3-3-3|
A|3--5--3--5--3--5--3--5--3--5--3--3-3-3-3-3|
D|---5--3--5-----5--3--5-----5--3--3-3-3-3-3|

[Chorus] - Rhythm Guitar
e|----------------------------------|  |---------------------------------|
B|----------------------------------|  |---------------------------------|
G|------------------5-5-5-5---------|3x|---------------------------------|
D|7-7-7-7--3-3-3-3--5-5-5-5--5-5-5-5|  |7-7-7-7--3-3-3-3--5-5-5-5-5-5-5-5|
A|7-7-7-7--3-3-3-3--3-3-3-3--5-5-5-5|  |7-7-7-7--3-3-3-3--5-5-5-5-5-5-5-5|
D|7-7-7-7--3-3-3-3-----------5-5-5-5|  |7-7-7-7--3-3-3-3--5-5-5-5-5-5-5-5|

[Interlude/Bridge] - Rhythm Guitar
e|-------------|
B|-------------|
G|---------4--5|3x
D|2--3--5--4--5|
A|2--3--5--2--3|
D|2--3--5------|

 [Solo #1] - Lead Guitar
e|-----------------------------------------------|
B|------------------13-13--13-12-13--15-15-13-13/|
G|/10-10-9---10-9--------------------------------|
D|-----------------------------------------------|
A|-----------------------------------------------|
D|-----------------------------------------------|

 Rhythm Guitar *(This section might be played an
 octave lower on the top three strings. I can't tell.)*
e|----------------------------------------|  |e|--------------------------------|
B|----------------------------------------|  |B|--------------------------------|
G|7-7-7-7-7-7-7-7--10-10-10-10-10-10-10-10|or|G|--------------------------------|
D|7-7-7-7-7-7-7-7--10-10-10-10-10-10-10-10|  |D|2-2-2-2-2-2-2-2--3-3-3-3-3-3-3-3|
A|5-5-5-5-5-5-5-5--8--8--8--8--8--8--8--8-|  |A|2-2-2-2-2-2-2-2--3-3-3-3-3-3-3-3|
D|----------------------------------------|  |D|2-2-2-2-2-2-2-2--3-3-3-3-3-3-3-3|

[Interlude/Bridge Again] - Rhythm Guitar
e|-------------|
B|-------------|
G|---------4--5|3x
D|2--3--5--4--5|
A|2--3--5--2--3|
D|2--3--5------|

[Solo #2] - Lead Guitar
e|-------------------------------------15-15-12----|
B|--------------------13-13--13-12-13-----------15/|
G|/10-10-9---10-9----------------------------------|
D|-------------------------------------------------|
A|-------------------------------------------------|
D|-------------------------------------------------|
 
 Rhythm Guitar
e|----------------------------------------|  |e|--------------------------------|
B|----------------------------------------|  |B|--------------------------------|
G|7-7-7-7-7-7-7-7--10-10-10-10-10-10-10-10|or|G|--------------------------------|
D|7-7-7-7-7-7-7-7--10-10-10-10-10-10-10-10|  |D|2-2-2-2-2-2-2-2--3-3-3-3-3-3-3-3|
A|5-5-5-5-5-5-5-5--8--8--8--8--8--8--8--8-|  |A|2-2-2-2-2-2-2-2--3-3-3-3-3-3-3-3|
D|----------------------------------------|  |D|2-2-2-2-2-2-2-2--3-3-3-3-3-3-3-3|

[Pre-Chorus] - Rhythm Guitar
e|------------------------------|
B|------------------------------|
G|5-----------5-----------------|
D|5--5--3--5--5--5--3--3-3-3-3-3|
A|3--5--3--5--3--5--3--3-3-3-3-3|
D|---5--3--5-----5--3--3-3-3-3-3|

[Chorus] - Rhythm Guitar
e|----------|  |-------|
B|----------|  |-------|
G|------5---|3x|-------|
D|7--3--5--5|  |7--3--5|
A|7--3--3--5|  |7--3--5|
D|7--3-----5|  |7--3--5|

[Ending] - Rhythm Guitar
e|-------------|  |-------|
B|-------------|  |-------|
G|---------4--5|3x|-------|
D|2--3--5--4--5|  |2--3--5|
A|2--3--5--2--3|  |2--3--5|
D|2--3--5------|  |2--3--5|

(Ultimate Guitar put the lyrics here automatically)

[Verse 1]
When all you got are broken dreams, just need a second chance...
And everything you want to be, gets taken from your hands.
We hold onto each other, all we have is all we need.
Cause one way or another, we always make it you and me.

[Pre-Chorus]
This life could almost kill ya,
When you're trying to survive.
It's good to be here with ya,
And it's good to be alive.

[Chorus]
It's good to be alive,
I was lost and I was gone,
I was almost dead inside,
You and me against the world.
It's a beautiful night,
It's good to be alive.

[Post-Chorus]
It’s good to be alive,
It’s good to be alive,
It’s good to be alive,
It’s good to be alive,
It’s good to be alive.

[Verse 2]
Driving down this highway, soaking up the sun,
Got miles to go before we get home and the journey’s just begun.
We hold onto each other, you are everything I need.
You feel like forever, you're a second chance for me.

[Pre-Chorus]
This life could almost kill ya,
When you're trying to survive.
It's good to be here with ya,
And it's good to be alive.

[Chorus]
It's good to be alive,
I was lost and I was gone,
I was almost dead inside,
You and me against the world.
It's a beautiful night,
It's good to be alive.

[Hook]
It's a beautiful night,
Yeah, it's alright,
It's good to be alive.
Nananana, nanananana

[Bridge]
This life could almost kill ya,
When you're trying to survive.
It's good to be, it's good to be alive,
It's good to be, it's good to be alive,
And it's good to be alive.

[Chorus]
It's good to be alive,
I was lost and I was gone,
I was almost dead inside,
You and me against the world.
It's a beautiful night,
It's good to be alive.

[Outro]
It’s a beautiful night,
Yeah, it’s all right,
It’s good to be alive.
Suggest correction
Give kudos to tab author, rate the tab!
1 2 3 4 5
comments
print report bad tab
guest
You may want to rate the tab now too:
select rating
Wanna post a correction for this tab? Suggest correction