Oops, an error
Loading. Please wait.

Hard To Find tab

by Skillet
239 views 1 this week
5 commentsread comments
1 2 3 4 5
2 more votes to show rating
add to favorites
×
Save as Personal and add changes to this tab that will be seen only by you. Learn more ›
×
You can save this tab as Personal to edit and correct it or add notes. All changes will be seen only by you. Learn more »
launch autoscroll
font size
0
reset
how to read this tab
guitar tuner
edit
Autoscroll
slow
fast
+/-
esc
set tempo
stop
-------------------------------------------------------------------------------
                           Hard To Find - Skillet
-------------------------------------------------------------------------------
Tabbed by: StevenBeaven90
E-mail: stevenkotelnikov@Gmail.com
Feel free to email me if you have any questions about this tab or any other of my tabs.

Tuning: Drop C#

[Intro](0:00-0:12)
Piano (x2)
D#|---------0---------------0---------------1--------------------------------|
A#|---1-0-1---1-0-1---1-0-1---1-0-1---1-0-1---1-0-1---1-0-1-3-1-0------------|
F#|---------------------------------------------------------------2----------|
c#|--------------------------------------------------------------------------|
G#|-0---------------3--------------------------------------------------------|
C#|---------------------------------3---------------0------------------------|

Strings (starts @ 0:06)
D#|-12--12-----10-12--12-----10-13--13-----13----------13--------------------|
A#|-------------------------------------------13---13------------------------|
F#|--------------------------------------------------------------------------|
c#|--------------------------------------------------------------------------|
G#|--------------------------------------------------------------------------|
C#|--------------------------------------------------------------------------|

[Verse I](0:12-0:37)
Piano (x4)
D#|---------0---------------0---------------1--------------------------------|
A#|---1-0-1---1-0-1---1-0-1---1-0-1---1-0-1---1-0-1---1-0-1-3-1-0------------|
F#|---------------------------------------------------------------2----------|
c#|--------------------------------------------------------------------------|
G#|-0---------------3--------------------------------------------------------|
C#|---------------------------------3---------------0------------------------|

Strings (x4)
D#|-12--12-----10-12--12-----10-13--13-----13----------13--------------------|
A#|-------------------------------------------13---13------------------------|
F#|--------------------------------------------------------------------------|
c#|--------------------------------------------------------------------------|
G#|--------------------------------------------------------------------------|
C#|--------------------------------------------------------------------------|

Lead Guitar (x2) (starts @ 0:25)
D#|-8---8-------8---8-------8---8--------------------------------------------|
A#|-8-6---8-----8-6---8-----8-6---8------------------------------------------|
F#|-5-----------5-----------5------------------------------------------------|
c#|--------------------------------------------------------------------------|
G#|--------------------------------------------------------------------------|
C#|--------------------------------------------------------------------------|

[Pre-chorus](0:37-0:40)
Lead Guitar
D#|--------------------------------------------------------------------------|
A#|--------------------------------------------------------------------------|
F#|-7------------------------------------------------------------------------|
c#|-7------------------------------------------------------------------------|
G#|-5------------------------------------------------------------------------|
C#|--------------------------------------------------------------------------|

[Chorus](0:40-1:05)
Rhythm Guitar
D#|--------------------------------------------------------------------------|
A#|--------------------------------------------------------------------------|
F#|-5---------------2---------------5---------------2------------------------|
c#|-5-(x8)--3-------2-(x8)--3-------5-(x8)--3-------2-(x8)--3----------------|
G#|-3-------3-(x8)--0-------3-(x8)--3-------3-(x8)--0-------3-(x4)-----------|
C#|---------3---------------3---------------3---------------3----------------|

[Post-chorus I](1:05-1:18)
Rhythm Guitar
D#|--------------------------------------------------------------------------|
A#|--------------------------------------------------------------------------|
F#|-5---------------2--------------------------------------------------------|
c#|-5-(x8)--3-------2-(x8)--3--3--3--3--3--3--3-3----------------------------|
G#|-3-------3-(x8)--0-------3--3--3--3--3--3--3-3----------------------------|
C#|---------3---------------3--3--3--3--3--3--3-3----------------------------|

[Verse II](1:18-1:43)
Piano (x4)
D#|---------0---------------0---------------1--------------------------------|
A#|---1-0-1---1-0-1---1-0-1---1-0-1---1-0-1---1-0-1---1-0-1-3-1-0------------|
F#|---------------------------------------------------------------2----------|
c#|--------------------------------------------------------------------------|
G#|-0---------------3--------------------------------------------------------|
C#|---------------------------------3---------------0------------------------|

Strings (x2) (starts @ 1:30)
D#|-12--12-----10-12--12-----10-13--13-----13----------13--------------------|
A#|-------------------------------------------13---13------------------------|
F#|--------------------------------------------------------------------------|
c#|--------------------------------------------------------------------------|
G#|--------------------------------------------------------------------------|
C#|--------------------------------------------------------------------------|

Lead Guitar 
D#|-8----20----13--------8----20----13---------------------------------------|
A#|-8----20----13--------8----20----13---------------------------------------|
F#|-5----17----10--------5----17----10---------------------------------------|
c#|--------------------------------------------------------------------------|
G#|--------------------------------------------------------------------------|
C#|--------------------------------------------------------------------------|

D#|-8---8-------8---8-------8---8--------------------------------------------|
A#|-8-6---8-----8-6---8-----8-6---8------------------------------------------|
F#|-5-----------5-----------5------------------------------------------------|
c#|--------------------------------------------------------------------------|
G#|--------------------------------------------------------------------------|
C#|--------------------------------------------------------------------------|

D#|-8---8-------8---8-------8---8--------------------------------------------|
A#|-8-6---8-----8-6---8-----8-6---8------------------------------------------|
F#|-5-----------5-----------5------------------------------------------------|
c#|--------------------------------------------------------------------------|
G#|--------------------------------------------------------------------------|
C#|--------------------------------------------------------------------------|

[Pre-chorus II](1:43-1:46)
Lead Guitar
D#|--------------------------------------------------------------------------|
A#|--------------------------------------------------------------------------|
F#|-7------------------------------------------------------------------------|
c#|-7------------------------------------------------------------------------|
G#|-5------------------------------------------------------------------------|
C#|--------------------------------------------------------------------------|

[Chorus II](1:46-2:11)
D#|--------------------------------------------------------------------------|
A#|--------------------------------------------------------------------------|
F#|-5---------------2---------------5---------------2------------------------|
c#|-5-(x8)--3-------2-(x8)--3-------5-(x8)--3-------2-(x8)--3----------------|
G#|-3-------3-(x8)--0-------3-(x8)--3-------3-(x8)--0-------3-(x8)-----------|
C#|---------3---------------3---------------3---------------3----------------|

[Post-chorus II](2:11-2:20)
Rhythm Guitar
D#|--------------------------------------------------------------------------|
A#|--------------------------------------------------------------------------|
F#|-3---------------5------7-------8--3--------------------------------------|
c#|-3-(x4)--3-------5-(x4)-7-(x3)--8--3-(x4)--3------------------------------|
G#|-1-------3-(x4)--3------5-------6--1-------3-(x4)-------------------------|
C#|---------3---------------------------------3------------------------------|

[Bridge](2:20-2:39)
Rhythm Guitar
D#|--------------------------------------------------------------------------|
A#|--------------------------------------------------------------------------|
F#|-2---------------5-------4-------3----------------------------------------|
c#|-2-(x8)--3-------5-(x8)--4-(x8)--3-(x16)----------------------------------|
G#|-0-------3-(x8)--3-------2-------1----------------------------------------|
C#|---------3----------------------------------------------------------------|

[Chorus III + IV](2:39-3:48)
Rhythm Guitar (starts @ 2:45)
D#|--------------------------------------------------------------------------|
A#|--------------------------------------------------------------------------|
F#|-----------------2---------------5---------------2------------------------|
c#|-----------------2-(x8)--3-------5-(x8)--3-------2-(x8)--3----------------|
G#|-----------------0-------3-(x8)--3-------3-(x8)--0-------3-(x8)-----------|
C#|-------------------------3---------------3---------------3----------------|

D#|--------------------------------------------------------------------------|
A#|--------------------------------------------------------------------------|
F#|-5---------------2--------------------------------------------------------|
c#|-5-(x8)--3-------2-(x8)--3------------------------------------------------|
G#|-3-------3-(x8)--0-------3-(x8)-------------------------------------------|
C#|---------3---------------3------------------------------------------------|

D#|--------------------------------------------------------------------------|
A#|--------------------------------------------------------------------------|
F#|-5---------------2---------------5---------------2------------------------|
c#|-5-(x8)--3-------2-(x8)--3-------5-(x8)--3-------2-(x8)--3----------------|
G#|-3-------3-(x8)--0-------3-(x8)--3-------3-(x8)--0-------3-(x8)-----------|
C#|---------3---------------3---------------3---------------3----------------|


************************************

| /   slide up
| \   slide down
| x   Mute note

************************************
Suggest correction
Creating personal tab
Creating personal tab
You can edit any tab online and save it as your Personal.

You can edit, replace or remove any tab part or add personal notes – all changes will be seen only by you.

Personal tabs can be accessed anytime from any device, even offline.
Learn more »
Give kudos to tab author, rate the tab!
1 2 3 4 5
comments
print report bad tab
5 comments total. Showing first comments.
0 reply
damonfinegan2 361 Aug 30, 2015 03:38 AM

Bro I have waited months for these!! I am thankful for this.

0 reply
damonfinegan2 361 Aug 30, 2015 09:52 AM

Was it hard?

0 reply
damonfinegan2 361 Aug 30, 2015 11:58 AM

Oh. Well I knew it was in C# but it sounded in the chorus like 4-2 power chords

guest
You may want to rate the tab now too:
select rating
Wanna post a correction for this tab? Suggest correction