Oops, an error
Loading. Please wait.

Hero Bass Tab

version 1
version 1

Whole song

Interactive

53,651 views 57 this week
5 commentsread comments
1 2 3 4 5
x 12
add to favorites
launch autoscroll
font size
0
reset
guitar tuner
Autoscroll
slow
fast
+/-
esc
set tempo
stop
Help us to improve Ultimate-Guitar.com Take our survey!
×
Author
Difficulty
intermediate
New Single off the album "Awake"
Yet again a 5-string or tune down to B, E, A, D.

G|---------------|---------------------------------|
D|---------------|---------------------------------|
A|---------------|---------------------------------|
E|---------------|---------------------------------|
B|----4-4-4-4----|----4-4-4-4--4-4--7--7-7--2--2-2-|

G|---------------------------------------|---------------------------------|
D|---------------------------------------|---------------------------------|
A|---------------------------------------|---------------------------------|
E|---------------------------------------|---------------------------------|
B|----4-4-4-4--4-4--12--12-12--14--14-14-|----4-4-4-4--4-4--7--7-7--2--2-2-|

G|---------------------------------------|
D|---------------------------------------|
A|---------------------------------------|
E|---------------------------------------|
B|----4-4-4-4--4-4--12--12-12--14--14-14-|

(Short Pause)
G|----------------------------|---------------------------|
D|----------------------------|---------------------------|
A|----------------------------|---------------------------|
E|----------------------------|---------------------------|
B|-4-4-4-4/12-11--7p6h7-7p6/2-|-4-4--4/12-11--7p6h7-7p6/2-|

G|----------------------------|---------------------------|
D|----------------------------|---------------------------|
A|----------------------------|---------------------------|
E|----------------------------|---------------------------|
B|-4-4-4-4/12-11--------7p6/2-|-4-4--4/12-11--7p6h7-7p6/2-|

G|-----------------------------------------|-------------------------|
D|-----------------------------------------|-------------------------|
A|-----------------------------------------|-------------------------|
E|-----------------------------------------|-------------------------|
B|-4-4-4-4-4-4-4-4/12-12-12-12-12-12-12-12-|-4-4--4/12-11-4--4/12-11-|

G|-----------------------------------------|------------------------|
D|-----------------------------------------|------------------------|
A|-----------------------------------------|------------------------|
E|-----------------------------------------|------------------------|
B|-4-4-4-4-4-4-4-4/12-12-12-12-12-12-12-12-|-4-4--4/12-11---7-6-7-7-|

G|---------------------------------|---------------------------------------|
D|---------------------------------|---------------------------------------|
A|---------------------------------|---------------------------------------|
E|---------------------------------|---------------------------------------|
B|----4-4-4-4--4-4--7--7-7--2--2-2-|----4-4-4-4--4-4--12--12-12--14--14-14-|

G|---------------------------------|---------------------------------------|
D|---------------------------------|---------------------------------------|
A|---------------------------------|---------------------------------------|
E|---------------------------------|---------------------------------------|
B|----4-4-4-4--4-4--7--7-7--2--2-2-|----4-4-4-4--4-4--12--12-12--14--14-14-|

G|----------------------------|---------------------------|
D|----------------------------|---------------------------|
A|----------------------------|---------------------------|
E|----------------------------|---------------------------|
B|-4-4-4-4/12-11--7p6h7-7p6/2-|-4-4--4/12-11--7p6h7-7p6/2-|

G|----------------------------|---------------------------|
D|----------------------------|---------------------------|
A|----------------------------|---------------------------|
E|----------------------------|---------------------------|
B|-4-4-4-4/12-11--7p6h7-7p6/2-|-4-4--4/12-11--7p6h7-7p6/2-|

G|-----------------------------------------|-------------------------|
D|-----------------------------------------|-------------------------|
A|-----------------------------------------|-------------------------|
E|-----------------------------------------|-------------------------|
B|-4-4-4-4-4-4-4-4/12-12-12-12-12-12-12-12-|-4-4--4/12-11-4--4/12-11-|

G|-----------------------------------------|------------------------|
D|-----------------------------------------|------------------------|
A|-----------------------------------------|------------------------|
E|-----------------------------19----------|------------------------|
B|-4-4-4-4-4-4-4-4/12-17-16-17----17-16-17-|-4-4--4/12-11---7-6-7-7-|

G|---------------------------------|---------------------------------------|
D|---------------------------------|---------------------------------------|
A|---------------------------------|---------------------------------------|
E|---------------------------------|---------------------------------------|
B|----4-4-4-4--4-4--7--7-7--2--2-2-|----4-4-4-4--4-4--12--12-12--14--14-14-|

G|---------------------------------|---------------------------------------|
D|---------------------------------|---------------------------------------|
A|---------------------------------|---------------------------------------|
E|---------------------------------|---------------------------------------|
B|----4-4-4-4--4-4--7--7-7--2--2-2-|----4-4-4-4--4-4--12--12-12--14--14-14-|

G|-----------------------------------|--------------------------------------|
D|-----------------------------------|--------------------------------------|
A|-----------------------------------|--------------------------------------|
E|-----------------------------------|--------------------------------------|
B|-4-4-4-4-4-4-4-4--7-7-7-7--2-2-2-2-|-4-4-4-4-4-4-4-4/12--12-12--14--14-14-|

G|----------------|----------------|-------------------|
D|----------------|----------------|-------------------|
A|----------------|----------------|-------------------|
E|----------------|----------------|-------------------|
B|----4-4-4-4-----|----4-4-4-4-----|-----4-4-4-4-4-4-4-|

G|----------------------------------|----------------------------|
D|----------------------------------|----------------------------|
A|----------------------------------|----------------------------|
E|----------------------------------|----------------------------|
B|-4-4-4-4--4-4/12--12-12--12-12-12-|-4-4-4-4--4-4/7--7-7--7-7-7-|

G|----------------------------------|----------------------------|
D|----------------------------------|----------------------------|
A|----------------------------------|----------------------------|
E|----------------------------------|----------------------------|
B|-4-4-4-4--4-4/12--12-12--12-12-12-|-4-4-4-4--4-4/7--7-7--7-7-7-|

G|----------------------------------|----------------------------|
D|----------------------------------|----------------------------|
A|----------------------------------|----------------------------|
E|----------------------------------|----------------------------|
B|-4-4-4-4--4-4/12--12-12--12-12-12-|-4-4-4-4--4-4/7--7-7--7-7-7-|

G|------------------------|-------------------------------------------------|
D|------------------------|-------------------------------------------------|
A|------------------------|-------------------------------------------------|
E|------------------------|-------------------------------------------------|
B|-4--4--4--4--4--4--4--4-|-12-12-12-12-12-12-12-12-14-14-14-14-14-14-14-14-|

G|---------------|-------------------|
D|---------------|-------------------|
A|---------------|-------------------|
E|---------------|-------------------|
B|----4-4-4-4----|-4-4-4-4-4-4-4-4-4-|

G|---------------------------------|---------------------------------------|
D|---------------------------------|---------------------------------------|
A|---------------------------------|---------------------------------------|
E|---------------------------------|---------------------------------------|
B|----4-4-4-4--4-4--7--------------|----4-4-4-4--4-4--12--12-12--14--14-14-|

G|---------------------------------|---------------------------------------|
D|---------------------------------|---------------------------------------|
A|---------------------------------|---------------------------------------|
E|---------------------------------|---------------------------------------|
B|----4-4-4-4--4-4--7--7-7--2--2-2-|----4-4-4-4--4-4--12--12-12--14--14-14-|

G|---------------------------------|---------------------------------------|
D|---------------------------------|---------------------------------------|
A|---------------------------------|---------------------------------------|
E|---------------------------------|---------------------------------------|
B|----4-4-4-4--4-4--7--7-7--2--2-2-|----4-4-4-4--4-4--12--12-12--14--14-14-|

G|---------------------------------|---------------------------------------|
D|---------------------------------|---------------------------------------|
A|---------------------------------|---------------------------------------|
E|---------------------------------|---------------------------------------|
B|----4-4-4-4--4-4--7--7-7--2--2-2-|----4-4-4-4--4-4--12--12-12--14--14-14-|

G|----------------------------|-----------------------------|
D|----------------------------|-----------------------------|
A|----------------------------|-----------------------------|
E|----------------------------|-----------------------------|
B|-4-4--4--4-4--7-7--7-2-2--2-|-4h7-7p4-4/2-2/4-4-4--4--4-4-|
Suggest correction
comments
print report bad tab
5 comments total. Showing first comments.
0 reply
RKDavid 10 Jul 11, 2009 10:11 PM

very nice tab! sounds great.

+2 reply
ShattrdNghtmare 10 Jun 27, 2010 11:44 AM

The tab's great, once you get into the middle of the song though it's a bit hard to follow without breaking it up into its individual parts (labeling the verse/chorus/etc)

+1 reply
iabulldog 10 Aug 05, 2010 07:33 PM

I agree, it is hard to follow. Add in the labels that ShattrdNghtmare mentioned.

guest
You may want to rate the tab now too:
select rating
Wanna post a correction for this tab? Suggest correction