Oops, an error
Loading. Please wait.
We have an official Hero tab made by UG professional guitarists. Check out the tab »
×
by Skillet
14,788 views 3 this week
3 commentsread comments
1 2 3 4 5
x 12
add to favorites
×
Save as Personal and add changes to this tab that will be seen only by you. Learn more ›
×
You can save this tab as Personal to edit and correct it or add notes. All changes will be seen only by you. Learn more »
launch autoscroll
font size
0
reset
how to read this tab
guitar tuner
backing track
0:00
0:00
edit
Autoscroll
slow
fast
+/-
esc
set tempo
stop
Difficulty
             [SKILLET AWAKE - HERO]
               BY EARL JOHN PETERS
Hi this is the intro lead part for the song called Hero by Skillet
in their new-soon-to-be-released album called Awake.
I did this in standard tuning ebgdae,
I couldn't decide with tune was right, so you
use what you think is right.


TABS: INTRO
e|---------------------------4-4--2-2--1-1-|
b|--4-4--6-6--7-7--6-6--2-2----------------|
g|-----------------------------------------|
d|-----------------------------------------|
a|-----------------------------------------|
e|-----------------------------------------|

e|---------------------------4-4----------|
b|--4-4--6-6--7-7--6-6--2-2---------------|
g|----------------------------------------|
d|----------------------------------------|
a|----------------------------------------|
e|----------------------------------------|

OR

e|-----------------------------------------------|
b|---------------------------------9-9--7-7--6-6-|
g|--8-8--10-10--11-11--10-10--6-6----------------|
d|-----------------------------------------------|
a|-----------------------------------------------|
e|-----------------------------------------------|

e|----------------------------------------------|
b|---------------------------------9-9----------|
g|--8-8--10-10--11-11--10-10--6-6---------------|
d|----------------------------------------------|
a|----------------------------------------------|
e|----------------------------------------------|

I am sure it's right but if you have any comments or corrections
please talk to me at: earlo4friends@msn.com

ENJOY GOD BLESS!:)

            
            
Suggest correction
Creating personal tab
Creating personal tab
You can edit any tab online and save it as your Personal.

You can edit, replace or remove any tab part or add personal notes – all changes will be seen only by you.

Personal tabs can be accessed anytime from any device, even offline.
Learn more »
comments
print report bad tab
3 comments total.
0 reply
jenks93 10 Jul 27, 2009 10:42 AM

pretty good,but its a lot easier to play it like this
e|---------------------------4-4---------------|
b|--4-4--6-6--7-7--6-6------------7-7--6-6-----|
g|----------------------6-6--------------------|
d|---------------------------------------------|
a|---------------------------------------------|
e|---------------------------------------------|

0 reply
gravytrain6969 10 May 02, 2011 11:27 AM

that is way off bro sorry to say

0 reply
Nkidd92 10 Jan 18, 2014 08:01 AM

I have played every version I've seen and all three of these tabs sound the same and sound exactly like the song. You did good on this and you're not off on anything.

guest
Wanna post a correction for this tab? Suggest correction