Oops, an error
Loading. Please wait.

Hero Tab

version 1
version 1
292,731 views 423 this week
28 commentsread comments
1 2 3 4 5
excellent!
x 70
add to favorites
launch autoscroll
font size
0
reset
how to read this tab
guitar tuner
Tab Pro tools
  • play this tab
  • loop segment
  • change instrument
  • show fretboard
  • metronome
×
Best way to learn
"Hero"
Autoscroll
slow
fast
+/-
esc
set tempo
stop
Contributor
Song: Hero
Album: Awake
Artist: Skillet

Tuning: Drop Db/C#

Hey. Well, I'm not sure this tab is perfect, but its pretty close as far as I can tell.
the end there's that riff, well I've done my best, but I don't think its right... so if
manage to figure it out post me a correction and I'll change it. I've tabbed this off of 
so the time might not be identical to the CD version.  Also, if you like this
check out my Monster tab too, ver3 I believe. Please rate and comment/correct.

Key:
Palm Mute         *
Slide             s
Pull Off          p
Let Ring          ~
Dead Note         x

======GUITAR=1======

Intro (0:00)
eb|-------------------------------------|
Bb|--5-5-7-7-8-8-7-7-----10-10-8-8-7-7--|
Gb|------------------7-7----------------|
Db|-------------------------------------|
Ab|-------------------------------------|
Db|-------------------------------------|

eb|-----------------------------|
Bb|--5-5-7-7-8-8-7-7-----10-10--|
Gb|------------------7-7--------|
Db|-----------------------------|
Ab|-----------------------------|
Db|-----------------------------|

eb|-------------------------------------====--|
Bb|--5-5-7-7-8-8-7-7-----10-10-8-8-7-7--=x4=--|
Gb|------------------7-7----------------====--|
Db|-------------------------------------------|
Ab|-------------------------------------------|
Db|-------------------------------------------|

eb|--8---8----|
Bb|----5---5--|
Gb|-----------|
Db|-----------|
Ab|-----------|
Db|-----------|

Verse (0:22)
eb|--------------|------------|------------|-------------|
Bb|--------------|------------|------------|-------------|
Gb|----------5-4-|------------|--------5-4-|-------------|
Db|----------x-x-|------------|---4----x-x-|-------------|
Ab|--2-2-2-2-3-2-|-x-4--2-4-5-|-2-2--2-3-2-|--4---2-3-2--|
Db|--2-2-2-2-----|-x-4--2-4-5-|-2----2-----|--4----------|
     * * * *         *  * * *   *    *        *   * * *

eb|--------------|------------|------------|-------------|
Bb|--------------|------------|------------|-------------|
Gb|----------5-4-|------------|--------5-4-|-------------|
Db|----------x-x-|------------|---4----x-x-|-------------|
Ab|--2-2-2-2-3-2-|--------4-5-|-2-2--2-3-2-|-x-4----5-7--|
Db|--2-2-2-2-----|--------4-5-|-2----2-----|-x-4----5-7--|
     * * * *              * *   *    *         *    * *

Pre-Chorus (0:36)
eb|--------------|------------|------------|
Bb|--------------|------------|------------|
Gb|--22-2222~-5~-|--------5-4-|-------5-4--|
Db|--22-2222~-5~-|--------x-x-|-------x-x--|
Ab|--00-0000~-3~-|-2-2--2-3-2-|--2--2-3-2--|
Db|--------------|-2-2--2-----|--2--2------|

eb|--------------|------------|-----------|
Bb|--------------|------------|-----------|
Gb|--22-2222~-5~-|--------5-2-|-----------|
Db|--22-2222~-5~-|--------x-x-|--------2--|
Ab|--00-0000~-3~-|-2-2--2-3-2-|--2-3-2-2--|
Db|--------------|-2-2--2-----|--2-2-2-2--|

Chorus (0:49)
eb|-------------------------------------====--|
Bb|--5-5-7-7-8-8-7-7-----10-10-8-8-7-7--=x4=--|
Gb|------------------7-7----------------====--|
Db|-------------------------------------------|
Ab|-------------------------------------------|
Db|-------------------------------------------|

Verse (1:03)
eb|--------------|------------|------------|-------------|
Bb|--------------|------------|------------|-------------|
Gb|----------5-4-|------------|--------5-4-|-------------|
Db|----------x-x-|------------|---4----x-x-|-------------|
Ab|--2-2-2-2-3-2-|-x-4--2-4-5-|-2-2--2-3-2-|--4---2-3-2--|
Db|--2-2-2-2-----|-x-4--2-4-5-|-2----2-----|--4----------|
     * * * *         *  * * *   *    *        *   * * *

eb|--------------|------------|------------|-------------|
Bb|--------------|------------|------------|-------------|
Gb|----------5-4-|------------|--------5-4-|-------------|
Db|----------x-x-|------------|---4----x-x-|-------------|
Ab|--2-2-2-2-3-2-|-x-4--2-4-5-|-2-2--2-3-2-|-x-4----5-7--|
Db|--2-2-2-2-----|-x-4--2-4-5-|-2----2-----|-x-4----5-7--|
     * * * *         *  * * *   *    *         *    * *

Pre-Chorus (1:16)
eb|--------------|------------|------------|
Bb|--------------|------------|------------|
Gb|--22-2222~-5~-|--------5-4-|-------5-4--|
Db|--22-2222~-5~-|--------x-x-|-------x-x--|
Ab|--00-0000~-3~-|-2-2--2-3-2-|--2--2-3-2--|
Db|--------------|-2-2--2-----|--2--2------|

eb|--------------|------------|-----------|
Bb|--------------|------------|-----------|
Gb|--22-2222~-5~-|--------5-2-|-----------|
Db|--22-2222~-5~-|--------x-x-|--------2--|
Ab|--00-0000~-3~-|-2-2--2-3-2-|--2-3-2-2--|
Db|--------------|-2-2--2-----|--2-2-2-2--|

Chorus (1:30)
eb|-------------------------------------====--|
Bb|--5-5-7-7-8-8-7-7-----10-10-8-8-7-7--=x8=--|
Gb|------------------7-7----------------====--|
Db|-------------------------------------------|
Ab|-------------------------------------------|
Db|-------------------------------------------|

Bridge (1:57)
eb|----------------|-----------------====--|
Bb|----------------|-----------------=x3=--|
Gb|--22-2222-55--5-|-----------------====--|
Db|--22-2222-55--5-|-22-2222-0~--0---------|
Ab|--00-0000-33--3-|-22-2222-0~--0---------|
Db|----------------|-22-2222-0~--0---------|

eb|------------------|------------------|
Bb|------------------|------------------|
Gb|--5-5-5-5-5-5-5-5-|-7-7-7-7-8-8-8-8--|
Db|--5-5-5-5-5-5-5-5-|-7-7-7-7-9-9-9-9--|
Ab|--3-3-3-3-3-3-3-3-|-5-5-5-5-6-6-6-6--|
Db|------------------|------------------|

eb|-------------------------------------|
Bb|--5-5-7-7-8-8-7-7-----10-10-8-8-7-7--|
Gb|------------------7-7----------------|
Db|-------------------------------------|
Ab|-------------------------------------|
Db|-------------------------------------|

Chorus/Outro (2:27)
eb|---------------------|
Bb|--5-5-7-7-8-8-7-7----|
Gb|---------------------|
Db|------------------2--|
Ab|------------------2--|
Db|------------------2--|

eb|-------------------------------------====--|
Bb|--5-5-7-7-8-8-7-7-----10-10-8-8-7-7--=x7=--|
Gb|------------------7-7----------------====--|
Db|-------------------------------------------|
Ab|-------------------------------------------|
Db|-------------------------------------------|

eb|---------------------|-----------------------|
Bb|---------------------|-----------------------|
Gb|---------------------|-----------------------|
Db|--22--22--22--55--00-|--2-5p2-4p2p0-22-2-22--|
Ab|--22--22--22--55--00-|--2-5p2-4p2p0-22-2-22--|
Db|--22--22--22--55--00-|--2-5p2-4p2p0-22-2-22--|


======GUITAR=2======

Intro (0:00)
eb|-----------|
Bb|-----------|
Gb|-----------|
Db|-----------|
Ab|--2-2-2-2--|
Db|--2-2-2-2--|
     * * * *

eb|---------------------|--------------------====--|
Bb|---------------------|--------------------=x2=--|
Gb|---------------------|------------5~--7~--====--|
Db|--2-2-2-2--22-5~--0~-|-2-2-2-2-22-5~--7~--------|
Ab|--2-2-2-2--22-5~--0~-|-2-2-2-2-22-3~--5~--------|
Db|--2-2-2-2--22-5~--0~-|-2-2-2-2-22---------------|

eb|-------------------|
Bb|-------------------|
Gb|-------------------|
Db|-------------------|
Ab|-------------------|
Db|--2-x-x-2-x-x-2p0--|

Verse (0:22)
eb|--------------|------------|------------|-----|
Bb|--------------|------------|------------|-----|
Gb|----------5-4-|------------|--------5-4-|-----|
Db|----------x-x-|------------|---4----x-x-|-----|
Ab|--2-2-2-2-3-2-|-x-4--2-4-5-|-2-2--2-3-2-|--4--|
Db|--2-2-2-2-----|-x-4--2-4-5-|-2----2-----|--4--|
     * * * *         *  * * *   *    *        *

eb|--------------|------------|------------|-------------|
Bb|--------------|------------|------------|-------------|
Gb|----------5-4-|------------|--------5-4-|-------------|
Db|----------x-x-|------------|---4----x-x-|-------------|
Ab|--2-2-2-2-3-2-|--------4-5-|-2-2--2-3-2-|-x-4----5-7--|
Db|--2-2-2-2-----|--------4-5-|-2----2-----|-x-4----5-7--|
     * * * *              * *   *    *         *    * *

Pre-Chorus (0:36)
eb|--------------|------------|------------|
Bb|--------------|------------|------------|
Gb|--22-2222~-5~-|--------5-4-|-------5-4--|
Db|--22-2222~-5~-|--------x-x-|-------x-x--|
Ab|--00-0000~-3~-|-2-2--2-3-2-|--2--2-3-2--|
Db|--------------|-2-2--2-----|--2--2------|

eb|--------------|------------|-----------|
Bb|--------------|------------|-----------|
Gb|--22-2222~-5~-|--------5-4-|-----------|
Db|--22-2222~-5~-|--------x-x-|--------2--|
Ab|--00-0000~-3~-|-2-2--2-3-2-|--2-3-2-2--|
Db|--------------|-2-2--2-----|--2-2-2-2--|

Chorus (0:49)
eb|---------------------|--------------------====--|
Bb|---------------------|--------------------=x2=--|
Gb|---------------------|------------5~--7~--====--|
Db|--2-2-2-2--22-5~--0~-|-2-2-2-2-22-5~--7~--------|
Ab|--2-2-2-2--22-5~--0~-|-2-2-2-2-22-3~--5~--------|
Db|--2-2-2-2--22-5~--0~-|-2-2-2-2-22---------------|

Verse (1:03)
eb|--------------|------------|------------|-----|
Bb|--------------|------------|------------|-----|
Gb|----------5-4-|------------|--------5-4-|-----|
Db|----------x-x-|------------|---4----x-x-|-----|
Ab|--2-2-2-2-3-2-|-x-4--2-4-5-|-2-2--2-3-2-|--4--|
Db|--2-2-2-2-----|-x-4--2-4-5-|-2----2-----|--4--|
     * * * *         *  * * *   *    *        *

eb|--------------|------------|------------|-------------|
Bb|--------------|------------|------------|-------------|
Gb|----------5-4-|------------|--------5-4-|-------------|
Db|----------x-x-|------------|---4----x-x-|-------------|
Ab|--2-2-2-2-3-2-|-x-4--2-4-5-|-2-2--2-3-2-|-x-4----5-7--|
Db|--2-2-2-2-----|-x-4--2-4-5-|-2----2-----|-x-4----5-7--|
     * * * *         *  * * *   *    *         *    * *

Pre-Chorus (1:16)
eb|--------------|------------|------------|
Bb|--------------|------------|------------|
Gb|--22-2222~-5~-|--------5-4-|-------5-4--|
Db|--22-2222~-5~-|--------x-x-|-------x-x--|
Ab|--00-0000~-3~-|-2-2--2-3-2-|--2--2-3-2--|
Db|--------------|-2-2--2-----|--2--2------|

eb|--------------|------------|-----------|
Bb|--------------|------------|-----------|
Gb|--22-2222~-5~-|--------5-4-|-----------|
Db|--22-2222~-5~-|--------x-x-|--------2--|
Ab|--00-0000~-3~-|-2-2--2-3-2-|--2-3-2-2--|
Db|--------------|-2-2--2-----|--2-2-2-2--|

Chorus (1:30)
eb|---------------------|--------------------====--|
Bb|---------------------|--------------------=x3=--|
Gb|---------------------|------------5~--7~--====--|
Db|--2-2-2-2--22-5~--0~-|-2-2-2-2-22-5~--7~--------|
Ab|--2-2-2-2--22-5~--0~-|-2-2-2-2-22-3~--5~--------|
Db|--2-2-2-2--22-5~--0~-|-2-2-2-2-22---------------|

eb|----------|-------------------------------|
Bb|----------|-------------------------------|
Gb|----------|-------------------------------|
Db|----------|-------------------------------|
Ab|--2-2-2-2-|---2-2-2-2----2-2-2-2-2-2-2-2--|
Db|--2-2-2-2-|---2-2-2-2----2-2-2-2-2-2-2-2--|
     * * * *     * * * *    * * * * (let off palm mute)

Bridge (1:57)
eb|----------------|-----------------====--|
Bb|----------------|-----------------=x3=--|
Gb|--22-2222-55--5-|-----------------====--|
Db|--22-2222-55--5-|-22-2222-0~--0---------|
Ab|--00-0000-33--3-|-22-2222-0~--0---------|
Db|----------------|-22-2222-0~--0---------|

eb|------------------|------------------|
Bb|------------------|------------------|
Gb|--5-5-5-5-5-5-5-5-|-7-7-7-7-8-8-8-8--|
Db|--5-5-5-5-5-5-5-5-|-7-7-7-7-9-9-9-9--|
Ab|--3-3-3-3-3-3-3-3-|-5-5-5-5-6-6-6-6--|
Db|------------------|------------------|

eb|------------------------------|
Bb|------------------------------|
Gb|------------------------------|
Db|------------------------------|
Ab|--2-2-2-2----2-2-2-2-2-2-2-2--|
Db|--2-2-2-2----2-2-2-2-2-2-2-2--|
     * * * *    * * * * (let off palm mute)

Chorus/Outro (2:27)
eb|-------------------|--------------------|
Bb|-------------------|--------------------|
Gb|-------------------|------------5~--7~--|
Db|--2-2-2-2--222-5---|-2-2-2-2-22-5~--7~--|
Ab|--2-2-2-2--222-5---|-2-2-2-2-22-3~--5~--|
Db|--2-2-2-2--222-5---|-2-2-2-2-22---------|

eb|---------------------|--------------------====--|
Bb|---------------------|--------------------=x3=--|
Gb|---------------------|------------5~--7~--====--|
Db|--2-2-2-2--22-5~--0~-|-2-2-2-2-22-5~--7~--------|
Ab|--2-2-2-2--22-5~--0~-|-2-2-2-2-22-3~--5~--------|
Db|--2-2-2-2--22-5~--0~-|-2-2-2-2-22---------------|

Then
eb|---------------------|-----------------------|
Bb|---------------------|-----------------------|
Gb|---------------------|-----------------------|
Db|--22--22--22--55--00-|--2-5p2-4p2p0-22-2-22--|
Ab|--22--22--22--55--00-|--2-5p2-4p2p0-22-2-22--|
Db|--22--22--22--55--00-|--2-5p2-4p2p0-22-2-22--|

Or (credit to I-Z) Please comment, say which one sounds more accurate please! lol
eb|---------------------|---------------------------|
Bb|---------------------|---------------------------|
Gb|---------------------|-------------------------- | 
Db|--22--22--22--55--00-|--2-5p2-5p2p0h2--22-2-2 2--| 
Ab|--22--22--22--55--00-|--2-5p2-5p2p0h2--22-2-2 2--| 
Db|--22--22--22--55--00-|--2-5p2-5p2p0h2--22-2-2 2--|
comments
print report bad tab
28 comments total. Showing first comments.
+1 reply
hockeynut9 wrote on July 2 2009, 09:37 pm

Nice job dude! The intro has to be perfect. It sounds good to me. This song is awesome!

0 reply
sumrandomhobo wrote on July 5 2009, 09:49 pm

Thanks man. =]

0 reply
bongotongosnitz wrote on July 7 2009, 08:10 am

this is kool man skillets osome

I want to post or [tab]
guest
You may want to rate the tab now too:
select rating
Please do not post tabs as comments. Select "correction" instead!