Oops, an error
Loading. Please wait.

Hero Bass Tab

version 4
version 4

Whole song

Interactive

40 views 1 this week
no commentswrite comment
1 2 3 4 5
3 more votes to show rating
add to favorites
launch autoscroll
font size
0
reset
guitar tuner
Autoscroll
slow
fast
+/-
esc
set tempo
stop
Help us to improve Ultimate-Guitar.com Take our survey!
×
Author
Difficulty
novice
the other hero tab sounds weird and is not organized 

This is a better version


Intro

G|--------------------------|
D|--------------------------|
A|--------------------------|
E|--------------------------|
B|-0-0-0-0-------0-0-0-0----|


G|------------------------------------|
D|------------------------------------|
A|------------------------------------| x2
E|------------------------------------|
B|5-5-5-5--3-3-3-3--5-5-5-5--3-3-3-3/9|



Verse 1

G|------------------------------------------------------|
D|------------------------------------------------------|
A|------------------------------------------------------| x2
E|------------------------------------------------------|
B|-5-5-5-5-3-3--7-7-7-7-5-5--5-5-5-5-3-3-9-9-9-9-9-7-7-7|




Pre-chorus

G|---------------------------------------|
D|---------------------------------------|
A|---------------------------------------| x2
E|---------------------------------------|
B|5-5--5-5-3-3-3~~~--7-7-7-7-5--9-9-9-9-7-7|

Chorus

G|--------------------------------|
D|--------------------------------|
A|--------------------------------|
E|--------------------------------| x2
B|-5-3~--7-7-5-5~-9-9-9-7-7~-5-5-3|





Verse 2

G|------------------------------------------------------|
D|------------------------------------------------------|
A|------------------------------------------------------| x2
E|------------------------------------------------------|
B|-5-5-5-5-3-3--7-7-7-7-5-5--5-5-5-5-3-3-9-9-9-9-9-7-7-7|



Pre-chorus

G|---------------------------------------|
D|---------------------------------------|
A|---------------------------------------| x2
E|---------------------------------------|
B|5-5--5-5-3-3-3~~~--7-7-7-7-5--9-9-9-9-7-7|


Chorus

G|--------------------------------|
D|--------------------------------|
A|--------------------------------|
E|--------------------------------| x2
B|-5-3~--7-7-5-5~-9-9-9-7-7~-5-5-3|


G|--------------------------------|
D|--------------------------------|
A|--------------------------------|
E|--------------------------------|
B|-5-3~--7-7-5-5~-5-5-3~-9-9-7~---|

Post chorus

G|--------------------------|
D|--------------------------|
A|--------------------------| x2
E|--------------------------|
B|----0-0-0-0---------------|

G|----------------------------------------------------------------|
D|----------------------------------------------------------------|
A|----------------------------------------------------------------|
E|----------------------------------------------------------------| x3
B|--5-5-5-5-3-3-3--7-7-7-7-5-5-5--9-9-9-9-7-7-7--12-12-12-12-9-9-9|

G|--------------------------------------------|
D|--------------------------------------------|
A|--------------------------------------------|
E|--------------------------------------------|
B|-5-5-5-5-5-5-5-5-3-3-3-5-5-5-5-5-5-5-5-9-7-5|

chorus

G|--------------------------------|
D|--------------------------------|
A|--------------------------------|
E|--------------------------------| x4
B|-5-3~--7-7-5-5~-9-9-9-7-7~-5-5-3|

Outro

G|--------------------------------------------------|
D|--------------------------------------------------|
A|--------------------------------------------------|
E|--------------------------------------------------|
B|-5-5--5-5--3-3--3-3--3--7-7-7-7-5-5--9-9--7-7-----|
Suggest correction
Give kudos to tab author, rate the tab!
1 2 3 4 5
comments
print report bad tab
guest
You may want to rate the tab now too:
select rating
Wanna post a correction for this tab? Suggest correction