Oops, an error
Loading. Please wait.
We have an official Hero tab made by UG professional guitarists. Check out the tab »
×
by Skillet
10,123 views 18 this week
6 commentsread comments
1 2 3 4 5
1 last vote to show rating
add to favorites
×
Save as Personal and add changes to this tab that will be seen only by you. Learn more ›
×
You can save this tab as Personal to edit and correct it or add notes. All changes will be seen only by you. Learn more »
launch autoscroll
font size
0
reset
how to read this tab
guitar tuner
backing track
0:00
0:00
edit
Autoscroll
slow
fast
+/-
esc
set tempo
stop
Tuning: Drop D

(Electric Guitar 1)
Eb|-7-7-7-7-7-7-7-7-|7-7-7-7-7-7-7-7-|7-7-7-7-7-7-7-7-7-|7-7-7-7-|
Bb|-----------------|----------------|------------------|--------|
Gb|-----------------|----------------|------------------|--------|
Db|-----------------|----------------|------------------|--------|
Ab|-----------------|----------------|------------------|--------|
Db|-----------------|----------------|------------------|--------|
 
(Electric Guitar 2)(w/dist.)
Eb|---------------|-----------------|---------------|----------------------|
Bb|----7-7-8-8-7-7|----10-10-8-8-7-7|----7-7-8-8-7-7|----10-10-10-10-10-10-|
Gb|9-9------------|7-7--------------|9-9------------|7-7--------7--7--7--7-|
Db|---------------|-----------------|---------------|----------------------|
Ab|---------------|-----------------|---------------|----------------------|
Db|---------------|-----------------|---------------|----------------------|

(Electric guitar 3 Rhy. Fig.1B)
Eb|------14-14-15-15-14-14|------17-17-15-15-14-14-|------14-14-15-15-14-14|
Bb|17-17------------------|15-15-------------------|17-17------------------|
Gb|-----------------------|------------------------|-----------------------|
Db|------------(repeat 1--|---time after playing)--|-----------------------|
Ab|-----------------------|------------------------|-----------------------|
Db|-----------------------|------------------------|-----------------------|
  
Eb|-8----8----8----8-|
Bb|---12---12---12---|
Gb|------------------|
Db|------------------|
Ab|------------------|
Db|------------------|
 
(Electric Guitar 3)
Eb|------------|-----------------------|------------|--------------------|
Bb|------------|-----------------------|------------|--------------------|
Gb|------------|-----------------------|------------|--------------------|
Db|------------|-----------------------|------------|--------------------|
Ab|-2-2-2-2-3-2|-----------------------|---2----3--2|--------------------|
Db|-2-2-2-2----|x-5-5-4-5-x-7-7-4-5----|2-----2-----|x-5-5-4-5-x-7-7-4-5-|

Eb|----------------------|------------------|
Bb|----------------------|------------------|
Gb|----------------------|------------------|
Db|----------------------|------------------|
Ab|----2--------3----2---|--------------5---|
Db|-2------2-------------|x-5-5-4-5-x-7---7-|
  
(Electric Guitar 2)
Eb|---7---8--7-------7-|
Bb|--------------------|
Gb|-9---9----------9---|
Db|--------------------|
Ab|--------------------|
Db|--------------------|
  
(Electric Guitar 3)
Eb|----------------|-------|------------|
Bb|----------------|-------|------------|
Gb|----------------|-------|------------|
Db|-2-2-2-2--2-2-5-|-5---5-|------------|
Ab|-0-0-0-0--0-0-3-|-3---3-|-2-2--2-3-2-|
Db|----------------|-------|-2-2--2-----|

(Electric Guitar 2)
Eb|----------|---7----8--7--|-----7-----------|
Bb|----------|--------------|-----------------|
Gb|----------|9----9--------|--9-----9--------|
Db|----------|--------------|-----------------|
Ab|----------|--------------|-----------------|
Db|----------|--------------|-----------------|

(Electric Guitar 3)
Eb|----------|--------------|-----------|
Bb|----------|--------------|-----------|
Gb|----------|--------------|-----------|
Db|----------|2-2-2-2--2-2-5|--5-5--5-5-|
Ab|-2---3-2--|0-0-0-0--0-0-3|--3-3--3-3-|
Db|-2-2------|--------------|-----------|


E5
Just an  -  oth  -  er day in the world we____ live. I need a

E5         G5            D5   E5                C5         D5
he  -  ro  to save me___ now. I need a he  -  ro.              I need a
                                                  (Save me now.___)
E5        G5            D5     E5                       C5          D5
he  -  ro to save my___ life.  A he  -  ro  -  'll save me. (Just in time._)

E5                    C5         D5           E5         G5          D5
he  -  ro will save me.              I need a he  -  ro  to save my_ life.
                        (Just in time.___)
E5              C5  D5     E5 
I need a he  -  ro just in time.

Db|-------------|--------------|-----------------|-----------------|
Ab|-------------|--------------|-----------------|-----------------|
Db|-------------|--------------|-----------------|-----------------|
Gb|-------------|--------------|-----------------|-----------------|
Bb|--2-2-2-2----|--------------|-2-2-2-2---------|-2-2-2-2-2-2-2-2-|
Eb|--2-2-2-2----|--------------|-2-2-2-2---------|-2-2-2-2-2-2-2-2-|

Db|------------------------|----------------------|-----------------------|
Ab|------------------------|----------------------|-----------------------|
Db|------------------------|----------------------|-----------------------|
Gb|--2----2----2--2--x--5--|----5--5----5----5----|--------------------7--|
Bb|--0----0----0--0--x--3--|----3--3----3----3----|-2----2----2--2--x--5--|
Eb|------------------------|----------------------|-2----2----2--2--x-----|

Db|----------------------|-----------------------|----------------------|
Ab|----------------------|-----------------------|----------------------|
Db|----------------------|-----------------------|----------------------|
Gb|----7--7----7----7----|-2----2----2--2--x--5--|----5--5----5----5----|
Bb|----5--5----5----5----|-0----0----0--0--x--3--|----3--3----3----3----|
Eb|----------------------|-----------------------|----------------------|

Db|----------------------|----------------------|-----------------------|
Ab|----------------------|----------------------|-----------------------|
Db|----------------------|----------------------|-----------------------|
Gb|--------------------7-|----7--7----7----7----|-2----2----2--2--x--5--|
Bb|--2----2----2--2-x--5-|----5--5----5----5----|-0----0----0--0--x--3--|
Eb|--2----2----2--2-x----|----------------------|-----------------------|

Db|---------------------|-----------------------|----------------------|
Ab|---------------------|-----------------------|----------------------|
Db|---------------------|-----------------------|----------------------|
Gb|-----5----5----5--5--|--------------------7--|----7--7----7----7----|
Bb|-----3----3----3--3--|-2----2----2--2--x--5--|----5--5----5----5----|
Eb|---------------------|-2----2----2--2--x-----|----------------------|

Db|---------------------|-----------------------|---------------------|---------------------|
Ab|---------------------|-----------------------|---------------------|---------------------|
Db|---------------------|-----------------------|---------------------|---------------------|
Gb|-----5----5----5--5--|-5----5----5----5------|-7----7----7----7----|-9----9----9----9----|
Bb|-----3----3----3--3--|-3----3----3----3------|-5----5----5----5----|-6----6----6----6----|
Eb|---------------------|-----------------------|---------------------|---------------------|

(Electric Guitar 3)
Db|-----------14-14-15-15-14-14-|-------17-17-15-15-14-14-|
Ab|----17-17--------------------|-15-15-------------------|
Db|-----------------------------|-------------------------|
Gb|-----------------------------|-------------------------|
Bb|-----------------------------|-------------------------|
Eb|-----------------------------|-------------------------|

Db|--------------------|-------------------------|
Ab|--------7-7-8-8-7-7-|--------10-10-8-8-7-7----|
Db|----9-9-------------|----7-7------------------|
Gb|--------------------|-------------------------|
Bb|--------------------|-------------------------|
Eb|--------------------|-------------------------|

Db|-----------14-14-15-15-14-14-|-------17-17-15-15-14-14-|
Ab|----17-17--------------------|-15-15-------------------|
Db|-----------------------------|-------------------------|
Gb|-----------------------------|-------------------------|
Bb|-----------------------------|-------------------------|
Eb|-----------------------------|-------------------------|

Db|--------------------|-------------------------|
Ab|--------7-7-8-8-7-7-|--------10-10-8-8-7-7----|
Db|----9-9-------------|----7-7------------------|
Gb|--------------------|-------------------------|
Bb|--------------------|-------------------------|
Eb|--------------------|-------------------------|


************************************

| b  Bend
| x  Dead note

************************************

            
            
Suggest correction
Creating personal tab
Creating personal tab
You can edit any tab online and save it as your Personal.

You can edit, replace or remove any tab part or add personal notes – all changes will be seen only by you.

Personal tabs can be accessed anytime from any device, even offline.
Learn more »
Give kudos to tab author, rate the tab!
1 2 3 4 5
comments
print report bad tab
6 comments total. Showing first comments.
0 reply
mermaid man 10 Feb 20, 2012 07:31 AM

I saw skillet at winterjam. They only have 2 guitarists

0 reply
Brandonata 51 Feb 20, 2012 09:46 AM

im not shure about how many guitars they have thats what i always thought they had too but in the book it says there are three.

0 reply
Stormegeddon 277 Aug 18, 2012 07:35 PM

In the studio they always add extra guitars. It makes it sound richer

guest
You may want to rate the tab now too:
select rating
Wanna post a correction for this tab? Suggest correction