Oops, an error
Loading. Please wait.

Its Not Me Its You tab

version 1
version 1

Whole song

Interactive

by Skillet
32,111 views 9 this week
5 commentsread comments
1 2 3 4 5
x 13
add to favorites
×
Save as Personal and add changes to this tab that will be seen only by you. Learn more ›
×
You can save this tab as Personal to edit and correct it or add notes. All changes will be seen only by you. Learn more »
launch autoscroll
font size
0
reset
how to read this tab
guitar tuner
edit
Autoscroll
slow
fast
+/-
esc
set tempo
stop
Song: It's Not Me It's You
Artist: Skillet
Album: Awake
Tuning: Drop D

(GUITAR 1)
[Intro] 
(0:03)
E|-------------------|------------------|
B|------12~----------|-----8~-----------|
G|------11~----------|-----7~-----------|
D|--9-9------4-4-4-4-|-5-5-----7-7-4-4--|
A|--9-9------4-4-4-4-|-5-5-----7-7-4-4--|
D|--9-9------4-4-4-4-|-5-5-----7-7-4-4--|

E|----------------|---------------|
B|----------------|---------------|
G|----------------|---------------| Play
D|--9-9---4-4-4-4-|-5-5---7-7-4-4--|  x2
A|--9-9---4-4-4-4-|-5-5---7-7-4-4--|
D|--9-9---4-4-4-4-|-5-5---7-7-4-4--|

[Verse]
(0:20)
E|-------------------|-------------|
B|-------------------|-------------|
G|-------------------|-------------| Play
D|--5~--5--5----5----|-7~----9~----|  x3
A|--5~--555555555555-|-7~----9~----|
D|--5~--555555555555-|-7~----9~----|
         ** **** ***

E|--------------|-------------------|
B|--------------|-------------------|
G|--------------|-------------------|
D|--5~----7~----|----------------7--|
A|--5~----7~----|-5555555577777777--|
D|--5~----7~----|-5555555577777777--|
                  ********* (slowly let off pm)  

[Chorus]
(0:42)
E|-------------------|------------------|
B|------12~----------|-----8~-----------|
G|------11~----------|-----7~-----------|
D|--9-9------4-4-4-4-|-5-5-----7-7-7-7--|
A|--9-9------4-4-4-4-|-5-5-----7-7-7-7--|
D|--9-9------4-4-4-4-|-5-5-----7-7-7-7--|

E|-------------------|------------------|
B|------12~----------|------------------|
G|------11~----------|------------------|
D|--9-9------4-4-4-4-|-5-5-5-5-7-7-7-7--|
A|--9-9------4-4-4-4-|-5-5-5-5-7-7-7-7--|
D|--9-9------4-4-4-4-|-5-5-5-5-7-7-7-7--|

E|-------------------|------------------|
B|------12~----------|-----8~-----------|
G|------11~----------|-----7~-----------|
D|--9-9------4-4-4-4-|-5-5-----7-7-7-7--|
A|--9-9------4-4-4-4-|-5-5-----7-7-7-7--|
D|--9-9------4-4-4-4-|-5-5-----7-7-7-7--|

E|------------------|--------------|
B|------------------|--------------|
G|------------------|--------------|
D|--5-5-5-5-7-7-7-7-|-5-5-5-5-4-4--|
A|--5-5-5-5-7-7-7-7-|-5-5-5-5-4-4--|
D|--5-5-5-5-7-7-7-7-|-5-5-5-5-4-4--|

[Post-chorus]
(1:05) 
E|--------------|------------------|
B|--------------|------------------|
G|--------------|------------------| Play
D|--9-9---4-4---|-5-5-5-5-7-7-4-4--|  x2
A|--9-9---4-4---|-5-5-5-5-7-7-4-4--|
D|--9-9---4-4---|-5-5-5-5-7-7-4-4--|

[Repeat Verse]
(1:16)

[Chorus]
(1:38)
E|-------------------|------------------|
B|------12~----------|-----8~-----------|
G|------11~----------|-----7~-----------|
D|--9-9------4-4-4-4-|-5-5-----7-7-7-7--|
A|--9-9------4-4-4-4-|-5-5-----7-7-7-7--|
D|--9-9------4-4-4-4-|-5-5-----7-7-7-7--|

E|-------------------|------------------|
B|------12~----------|------------------|
G|------11~----------|------------------|
D|--9-9------4-4-4-4-|-5-5-5-5-7-7-7-7--|
A|--9-9------4-4-4-4-|-5-5-5-5-7-7-7-7--|
D|--9-9------4-4-4-4-|-5-5-5-5-7-7-7-7--|

E|-------------------|------------------|
B|------12~----------|-----8~-----------|
G|------11~----------|-----7~-----------|
D|--9-9------4-4-4-4-|-5-5-----7-7-7-7--|
A|--9-9------4-4-4-4-|-5-5-----7-7-7-7--|
D|--9-9------4-4-4-4-|-5-5-----7-7-7-7--|

E|------------------|-----------------|
B|------------------|-----------------|
G|------------------|-----------------|
D|--5-5-5-5-7-7-7-7-|-5-5-5-5-4-4-4-4-|
A|--5-5-5-5-7-7-7-7-|-5-5-5-5-4-4-4-4-|
D|--5-5-5-5-7-7-7-7-|-5-5-5-5-4-4-4-4-|

[Bridge]
(2:00)
E|--------------------|--------------------|
B|--------------------|--------------------|
G|--------------------|--------------------|
D|--9h10p9p7h9-2-0--0-|-9h10p9p7h9-2-0--7--|
A|--9h10p9p7h9-2-0--0-|-9h10p9p7h9-2-0--7--|
D|--9h10p9p7h9-2-0--0-|-9h10p9p7h9-2-0--7--|

E|------------------|-----------------|-----------------|------------------|
B|------------------|-----------------|-----------------|------------------|
G|------------------|-----------------|-----------------|------------------| 
D|--5-5-5-5-5-5-5-5-|-9-9-9-9-9-9-9-9-|-0-0-0-0-0-0-0-0-|-2-2-2-2-2-2-2-2--|  
A|--5-5-5-5-5-5-5-5-|-9-9-9-9-9-9-9-9-|-0-0-0-0-0-0-0-0-|-2-2-2-2-2-2-2-2--|
D|--5-5-5-5-5-5-5-5-|-9-9-9-9-9-9-9-9-|-0-0-0-0-0-0-0-0-|-2-2-2-2-2-2-2-2--|

E|------------------|-----------------|-----------------|-------------------|
B|------------------|-----------------|-----------------|-------------------|
G|------------------|-----------------|-----------------|-------------------| 
D|--5-5-5-5-5-5-5-5-|-9-9-9-9-9-9-9-9-|-2-2-2-2-2-2-2-2-|-----------777777--|  
A|--5-5-5-5-5-5-5-5-|-9-9-9-9-9-9-9-9-|-2-2-2-2-2-2-2-2-|-5-5-5-5-7-777777--|
D|--5-5-5-5-5-5-5-5-|-9-9-9-9-9-9-9-9-|-2-2-2-2-2-2-2-2-|-5-5-5-5-7-777777--|        
                                                          * * * * * 
[Chorus]
(2:35)
E|---------------|---------------|
B|--12~----------|--9~-----------|
G|--11~----------|--7~-----------|
D|-------4-4-4-4-|------7-7-7-7--|
A|-------4-4-4-4-|------7-7-7-7--|
D|-------4-4-4-4-|------7-7-7-7--|

E|-------------------|------------------|
B|------12~----------|------------------|
G|------11~----------|------------------|
D|--9-9------4-4-4-4-|-5-5-5-5-7-7-7-7--|
A|--9-9------4-4-4-4-|-5-5-5-5-7-7-7-7--|
D|--9-9------4-4-4-4-|-5-5-5-5-7-7-7-7--|

E|-------------------|------------------|
B|------12~----------|-----8~-----------|
G|------11~----------|-----7~-----------|
D|--9-9------4-4-4-4-|-5-5-----7-7-7-7--|
A|--9-9------4-4-4-4-|-5-5-----7-7-7-7--|
D|--9-9------4-4-4-4-|-5-5-----7-7-7-7--|

E|------------------|-----------------|
B|------------------|-----------------|
G|------------------|-----------------|
D|--5-5-5-5-7-7-7-7-|-5-5-5-5-4-4-4-4-|
A|--5-5-5-5-7-7-7-7-|-5-5-5-5-4-4-4-4-|
D|--5-5-5-5-7-7-7-7-|-5-5-5-5-4-4-4-4-|

[Outro]
(2:56)
E|--------------|------------------|
B|--------------|------------------|
G|--------------|------------------| Play
D|--9-9---4-4---|-5-5-5-5-7-7-4-4--|  x4
A|--9-9---4-4---|-5-5-5-5-7-7-4-4--|
D|--9-9---4-4---|-5-5-5-5-7-7-4-4--|

[End on]
E|-----|
B|-----|
G|-----|
D|--9--|
A|--9--|
D|--9--|

(GUITAR 2)
[Intro]
(0:09)
E|--14--|-------------15--|-15-14-12-15-14--|
B|------|-14-15-14-12-----|-----------------|
G|------|-----------------|-----------------|
D|------|-----------------|-----------------|
A|------|-----------------|-----------------|
D|------|-----------------|-----------------|

E|--------------15-|--15-14-12-----|
B|--14-15-14-12----|-----------15--|
G|-----------------|---------------|
D|-----------------|---------------|
A|-----------------|---------------|
D|-----------------|---------------|

[Verse] 
(0:20) Silent

[Chorus]
(0:42)
E|-------------------|------------------|
B|------12~----------|-----8~-----------|
G|------11~----------|-----7~-----------|
D|--9-9------4-4-4-4-|-5-5-----7-7-7-7--|
A|--9-9------4-4-4-4-|-5-5-----7-7-7-7--|
D|--9-9------4-4-4-4-|-5-5-----7-7-7-7--|

E|-------------------|------------------|
B|------12~----------|------------------|
G|------11~----------|------------------|
D|--9-9------4-4-4-4-|-5-5-5-5-7-7-7-7--|
A|--9-9------4-4-4-4-|-5-5-5-5-7-7-7-7--|
D|--9-9------4-4-4-4-|-5-5-5-5-7-7-7-7--|

E|-------------------|------------------|
B|------12~----------|-----8~-----------|
G|------11~----------|-----7~-----------|
D|--9-9------4-4-4-4-|-5-5-----7-7-7-7--|
A|--9-9------4-4-4-4-|-5-5-----7-7-7-7--|
D|--9-9------4-4-4-4-|-5-5-----7-7-7-7--|

E|------------------|--------------|
B|------------------|--------------|
G|------------------|--------------|
D|--5-5-5-5-7-7-7-7-|-5-5-5-5-4-4--|
A|--5-5-5-5-7-7-7-7-|-5-5-5-5-4-4--|
D|--5-5-5-5-7-7-7-7-|-5-5-5-5-4-4--|

[Post-chorus]
(1:05)
E|--10~--9-------------------|
B|---------10~--7-10s12-12~--|
G|---------------------------|
D|---------------------------|
A|---------------------------|
D|---------------------------|

[Verse]
(1:16)
E|--7~----|
B|----7~--|
G|--------| Play
D|--------|  x6
A|--------|
D|--------|

E|--10~-----|-----9~--12~--|
B|-----10~--|--10~---------|
G|----------|--------------|
D|----------|--------------|
A|----------|--------------|
D|----------|--------------|

[Chorus]
(1:38)
E|-------------------|------------------|
B|------12~----------|-----8~-----------|
G|------11~----------|-----7~-----------|
D|--9-9------4-4-4-4-|-5-5-----7-7-7-7--|
A|--9-9------4-4-4-4-|-5-5-----7-7-7-7--|
D|--9-9------4-4-4-4-|-5-5-----7-7-7-7--|

E|-------------------|------------------|
B|------12~----------|------------------|
G|------11~----------|------------------|
D|--9-9------4-4-4-4-|-5-5-5-5-7-7-7-7--|
A|--9-9------4-4-4-4-|-5-5-5-5-7-7-7-7--|
D|--9-9------4-4-4-4-|-5-5-5-5-7-7-7-7--|

E|-------------------|------------------|
B|------12~----------|-----8~-----------|
G|------11~----------|-----7~-----------|
D|--9-9------4-4-4-4-|-5-5-----7-7-7-7--|
A|--9-9------4-4-4-4-|-5-5-----7-7-7-7--|
D|--9-9------4-4-4-4-|-5-5-----7-7-7-7--|

E|------------------|-----------------|
B|------------------|-----------------|
G|------------------|-----------------|
D|--5-5-5-5-7-7-7-7-|-5-5-5-5-4-4-4-4-|
A|--5-5-5-5-7-7-7-7-|-5-5-5-5-4-4-4-4-|
D|--5-5-5-5-7-7-7-7-|-5-5-5-5-4-4-4-4-|

[Bridge]
(2:00)
E|--------------------|--------------------|
B|--------------------|--------------------|
G|--------------------|--------------------|
D|--9h10p9p7h9-2-0--0-|-9h10p9p7h9-2-0--7--|
A|--9h10p9p7h9-2-0--0-|-9h10p9p7h9-2-0--7--|
D|--9h10p9p7h9-2-0--0-|-9h10p9p7h9-2-0--7--|

[Chorus]
(2:35)
E|---------------|---------------|
B|--12~----------|--9~-----------|
G|--11~----------|--7~-----------|
D|-------4-4-4-4-|------7-7-7-7--|
A|-------4-4-4-4-|------7-7-7-7--|
D|-------4-4-4-4-|------7-7-7-7--|

E|-------------------|------------------|
B|------12~----------|------------------|
G|------11~----------|------------------|
D|--9-9------4-4-4-4-|-5-5-5-5-7-7-7-7--|
A|--9-9------4-4-4-4-|-5-5-5-5-7-7-7-7--|
D|--9-9------4-4-4-4-|-5-5-5-5-7-7-7-7--|

E|-------------------|------------------|
B|------12~----------|-----8~-----------|
G|------11~----------|-----7~-----------|
D|--9-9------4-4-4-4-|-5-5-----7-7-7-7--|
A|--9-9------4-4-4-4-|-5-5-----7-7-7-7--|
D|--9-9------4-4-4-4-|-5-5-----7-7-7-7--|

E|------------------|-----------------|
B|------------------|-----------------|
G|------------------|-----------------|
D|--5-5-5-5-7-7-7-7-|-5-5-5-5-4-4-4-4-|
A|--5-5-5-5-7-7-7-7-|-5-5-5-5-4-4-4-4-|
D|--5-5-5-5-7-7-7-7-|-5-5-5-5-4-4-4-4-|

[Outro]
(3:08)
E|--14--|-------------15--|-15-14-12-15-14--|
B|------|-14-15-14-12-----|-----------------|
G|------|-----------------|-----------------|
D|------|-----------------|-----------------|
A|------|-----------------|-----------------|
D|------|-----------------|-----------------|

E|--------------15-|--15-14-12-15-14--|
B|--14-15-14-12----|------------------|
G|-----------------|------------------|
D|-----------------|------------------|
A|-----------------|------------------|
D|-----------------|------------------|

************************************

| ~  Vibrato
| h  Hammer-on
| p  Pull-off

************************************

            
            
Suggest correction
Creating personal tab
Creating personal tab
You can edit any tab online and save it as your Personal.

You can edit, replace or remove any tab part or add personal notes – all changes will be seen only by you.

Personal tabs can be accessed anytime from any device, even offline.
Learn more »
comments
print report bad tab
5 comments total. Showing first comments.
0 reply
drob 10 Oct 05, 2009 12:02 PM

For the riffs instead of
e|--14--|-------------15--|-15-14-12-15-14--|
B|------|-14-15-14-12-----|-----------------|
G|------|-----------------|-----------------|
D|------|-----------------|-----------------|
A|------|-----------------|-----------------|
D|------|-----------------|-----------------|

e|--------------15-|--15-14-12-15-14--|
B|--14-15-14-12----|------------------|
G|-----------------|------------------|
D|-----------------|------------------|
A|-----------------|------------------|
D|-----------------|------------------|

i play this

e|------|-----------------|------------------|
B|------|-----------------|------------------|
G|--11--|-------------12--|-12-11-10-12-11---|
D|------|-11-12-11-10-----|----------------12|
A|------|-----------------|------------------|
D|------|-----------------|------------------|

e|-----------------|----------------|
B|-----------------|----------------|
G|-------------12--|-12-11-10-12-11-|
D|-11-12-11-10-----|----------------|
A|-----------------|----------------|
D|-----------------|----------------|

but it sounds good
everything else is exactly what i do

0 reply
guitar4life97 109 Nov 13, 2009 07:06 AM

I think it should go like this...

e------------------------------------------------------------
B------------------------------------------------------------
G--11-------------12--12-11-9-12-11------------12---12-11-9-7
D------11-12-11-9-------------------11-12-11-9---------------
A------------------------------------------------------------
D------------------------------------------------------------

Its just like Drobs, just with some changes.

0 reply
kalemlalonde 10 Jan 21, 2010 11:37 AM

Nope ill tab a version soon that small riff is wrong

guest
You may want to rate the tab now too:
select rating
Wanna post a correction for this tab? Suggest correction