Oops, an error
Loading. Please wait.

Kill Me Heal Me Tab

version 2
version 2

Whole song

2,236 views 1 this week
1 commentread comment
1 2 3 4 5
worth learning
x 7
add to favorites
launch autoscroll
font size
0
reset
how to read this tab
guitar tuner
Tab Pro tools
  • play this tab
  • loop segment
  • change instrument
  • show fretboard
  • metronome
×
Best way to learn
"Kill Me Heal Me"
Autoscroll
slow
fast
+/-
esc
set tempo
stop
Contributor
Tuning
D A D G B E
Im new at this and it is my first tab so plz dont kill me if im wrong


Song: Kill Me Heal Me
Artist: Skillet
Album: Alien Youth
Tabbed By: PhantomGuitarist
Tunning: Drop D


Intro - 3 times
D------------------------------------------|
A------------------------------------------|
F------------------------------------------|
C--0-0--0-0--0-0--3-3--0-0--0-0--0-0--3-6--|
G--0-0--0-0--0-0--3-3--0-0--0-0--0-0--3-6--|
C--0-0--0-0--0-0--3-3--0-0--0-0--0-0--3-6--|


Verse 1


(Play at 0:37)
D----------------|
A----------------|
F----------------|
C--5-5--3-3------|
G--5-5--3-3------|
C--5-5--3-3------|


This 3 times (Listen to the song to get exact timing)
D--------------------|
A--------------------|
F--------------------|
C----------------5-5-|
G----------------5-5-|
C----------------5-5-|

most likely guitar with high Reverb, or synthesizer, not so sure


Chorus: (Play this 2 times)
D---------------------------------------------------------|
A---------------------------------------------------------|
F---------------------------------------------------------|
C-8-8---7-7-------0-0---3-3-------8-8-----7-7----0-0--3-3-|
G-8-8---7-7-------0-0---3-3-------8-8-----7-7----0-0--3-3-|
C-8-8---7-7-------0-0---3-3-------8-8-----7-7----0-0--3-3-|


Intro Again (play 1 time) (1:21)
D------------------------------------------|
A------------------------------------------|
F------------------------------------------|
C--0-0--0-0--0-0--3-3--0-0--0-0--0-0--3-6--|
G--0-0--0-0--0-0--3-3--0-0--0-0--0-0--3-6--|
C--0-0--0-0--0-0--3-3--0-0--0-0--0-0--3-6--|

Verse 2

Play this 3 times:
D-------------------------|
A-------------------------|
F-------------------------|
C--------------------5-5--|
G--------------------5-5--|
C--------------------5-5--|

I think it's a synthsaizer

This once:
D----------------|
A----------------|
F----------------|
C--5-5--3-3------|
G--5-5--3-3------|
C--5-5--3-3------|


This 3 more times:
D-------------------|
A-------------------|
F-------------------|
C---------------5-5-|
G---------------5-5-|
C---------------5-5-|

(More weird guitar stuff)

Then this once, and then straight to chorus:
D----------------|
A----------------|
F----------------|
C--5-5--3-3------|
G--5-5--3-3------|
C--5-5--3-3------|

Chorus: (Play 2 times)
D---------------------------------------------------------|
A---------------------------------------------------------|
F---------------------------------------------------------|
C-8-8---7-7-------0-0---3-3-------8-8-----7-7----0-0--3-3-|
G-8-8---7-7-------0-0---3-3-------8-8-----7-7----0-0--3-3-|
C-8-8---7-7-------0-0---3-3-------8-8-----7-7----0-0--3-3-|


Bridge (2:16) (Play twice)

D-----------------------------------|
A-----------------------------------|
F-----------------------------------|
C--7--10---------2------------------|
G--7--10---------2------------------|
C--7--10---------2------------------|
         I can't live without it


Bridge (2:25) (Play twice more):

D----------------------------------------------------------|
A----------------------------------------------------------|
F----------------------------------------------------------|
C--------2----------------7--10---------2------------------|
G--------2----------------7--10---------2------------------|
C--------2----------------7--10---------2------------------|

Intro Again (Play 2 times then immediately go to chorus)
D------------------------------------------|
A------------------------------------------|
F------------------------------------------|
C--0-0--0-0--0-0--3-3--0-0--0-0--0-0--3-6--|
G--0-0--0-0--0-0--3-3--0-0--0-0--0-0--3-6--|
C--0-0--0-0--0-0--3-3--0-0--0-0--0-0--3-6--|


Chorus: (Play 4 times)
D---------------------------------------------------------|
A---------------------------------------------------------|
F---------------------------------------------------------|
C-8-8---7-7-------0-0---3-3-------8-8-----7-7----0-0--3-3-|
G-8-8---7-7-------0-0---3-3-------8-8-----7-7----0-0--3-3-|
C-8-8---7-7-------0-0---3-3-------8-8-----7-7----0-0--3-3-|


Outro: (3:25)
D------------------------------------------|
A------------------------------------------|
F------------------------------------------|
C--0-0--0-0--0-0--3-3--0-0--0-0--0-0--3-6--|
G--0-0--0-0--0-0--3-3--0-0--0-0--0-0--3-6--|
C--0-0--0-0--0-0--3-3--0-0--0-0--0-0--3-6--|


Well this is as good as i can get it i've been only playing for a little while so let me 
how i did it sounds right to me
comments
print report bad tab
1 comment total.
+1 reply
FirstSkilletFan wrote on September 24 2008, 09:08 pm

I'm sorry the intro is off a bit, but good job other than that.

I want to post or [tab]
guest
You may want to rate the tab now too:
select rating
Please do not post tabs as comments. Select "correction" instead!