Oops, an error
Loading. Please wait.

Last Night bass

version 1
version 1

Whole song

Interactive

by Skillet
14,047 views 1 this week
4 commentsread comments
1 2 3 4 5
x 4
add to favorites
×
Save as Personal and add changes to this tab that will be seen only by you. Learn more ›
×
You can save this tab as Personal to edit and correct it or add notes. All changes will be seen only by you. Learn more »
launch autoscroll
font size
0
reset
guitar tuner
edit
Autoscroll
slow
fast
+/-
esc
set tempo
stop
Well I noticed NO ONE like anywhere had tabbed this for bass

But I can hear it
and I'm sure other bass players can hear the bass in the song
So I'm gonna tab it
Notes in the ()s-- Slide up or down the finger board while strumming to make it eaiser to play.

Tuning: 5-String, or tune down to B, E, A, D

Intro is Piano
Then Bass, guitar, and drums

G|------------------------------------------|
D|------------------------------------------|
A|------------------------------------------|
E|------------------------------------------|
B|0-0-0--0-0-0--0-0-0--8-8-8--8-8-7-x-x-x-x-|

Short Pause
Verse

|---------------------------------------------------------------|
|---------------------------------------------------------------|
|---------------------------------------------------------------|
|---------------------------------------------------------------|
|-7-7--7-7-(5-5-4-4-3-3-2-2-1-1)-7-7--7-7-(5-5-4-4-3-3-2-2-1-1)-|
             
|---------------------------------------|
|---------------------------------------|
|---------------------------------------|
|--------------------------------7-7--5-|
|-3-3-3-3-3-3-3-3-3-3-3-3-3-3-3-3-------|

Chorus

|----------------------------------------------------------|
|----------------------------------------------------------|
|----------------------------------------------------------|
|-------------------------5-5-5-5--------------------------|
|-8-8-8-8-0-0-0-0-3-3-3-3---------8-8-8-8-0-0-0-0-10-10--8-|

|----------------------------------------------------------|
|----------------------------------------------------------|
|----------------------------------------------------------|
|-------------------------5-5-5-5--------------------------|
|-8-8-8-8-0-0-0-0-3-3-3-3---------8-8-8-8-0-0-0-0-10-10--8-|


Repeat intro

Short Pause
Repeat Verse

Chorus

Now comes the Riffs!
Riff One

|----------------------------------------------------|
|----------------------------------------------------|
|----------------------------------------------------|
|---------------------7---5-----------------7---5----|
|-5----8----0----5-----------8----0----5-------------|

Riff Two

|-------------------------------------------------------------------|
|-------------------------------------------------------------------|
|-------------------------------------------------------------------|
|-------------------------------------------------------------------|
|-5-5-5--5-5-5--5-5-5---5-5-5--5-5-5--5-5-5---5-5-5--5-5-5--5-5-5---|

|-------------------------|
|-------------------------|
|-------------------------|
|-------------------------|
|-5-5-5-5--5-5-5-5--5-5---|
                              
Chorus
|----------------------------------------------------------|
|----------------------------------------------------------|
|----------------------------------------------------------|
|-------------------------5-5-5-5--------------------------|
|-8-8-8-8-0-0-0-0-3-3-3-3---------8-8-8-8-0-0-0-0-10-10--8-|

|----------------------------------------------------------|
|----------------------------------------------------------|
|----------------------------------------------------------|
|-------------------------5-5-5-5--------------------------|
|-8-8-8-8-0-0-0-0-3-3-3-3---------8-8-8-8-0-0-0-0-10-10--8-|

|----------------------------------------------------------|
|----------------------------------------------------------|
|----------------------------------------------------------|
|-------------------------5-5-5-5--------------------------|
|-8-8-8-8-0-0-0-0-3-3-3-3---------8-8-8-8-0-0-0-0-10-10--8-|

Outro Riff

|-------------|
|-------------|
|-------------|
|-------------|
|-5-----8-----|

Piano ends song

Thats it

Hope you like it!

            
            
Suggest correction
Creating personal tab
Creating personal tab
You can edit any tab online and save it as your Personal.

You can edit, replace or remove any tab part or add personal notes – all changes will be seen only by you.

Personal tabs can be accessed anytime from any device, even offline.
Learn more »
comments
print report bad tab
4 comments total. Showing first comments.
+1 reply
l33t bassist 10 Apr 29, 2009 02:37 PM

sw33t, sounds right to me thanks for the tab

0 reply
SCARZ91 31 Jun 22, 2010 11:34 PM

can u do tabs for this song on 4 string bass?

0 reply
NightHawk123 10 Jul 06, 2012 07:53 PM

if you want it on a 4 string just drop tune,
make the E a B
make the A an E
make the D an A
and make the G a D
this song doesnt use the A string so you can just do what i did and just change the tuning if the top 2 strings (the E and A)

guest
You may want to rate the tab now too:
select rating
Wanna post a correction for this tab? Suggest correction