Oops, an error
Loading. Please wait.

Live Free Or Let Me Die Bass Tab

version 1
version 1

Whole song

Interactive

2,614 views 1 this week
1 commentread comment
1 2 3 4 5
excellent!
x 3
add to favorites
launch autoscroll
font size
0
reset
guitar tuner
Autoscroll
slow
fast
+/-
esc
set tempo
stop
Help us to improve Ultimate-Guitar.com Take our survey!
×
Author
5-String or tune down to B, E, A, D

G|-----------|--------------------------------------|
D|-----------|--------------------------------------|
A|-----------|--------------------------------------|
E|-----------|----------------------------10p9-12p9-|
B|-7~~~~~~~~~|-0-0-12-0-12p10-0-0-0-0-0-0-----------|

|--------------------------------|--------------------------------------|
|--------------------------------|--------------------------------------|
|--------------------------------|--------------------------------------|
|--------------------------------|----------------------------10p9-10p9-|
|-0-0-12-0-12p10-0-0-0-0-0-0---3~|-0-0-12-0-12p10-0-0-0-0-0-0-----------|

|---------------------|
|---------------------|
|---------------------|
|---------------------|
|-8-8-8-8/10-10-10-10-|

Short Pause

|----------------------------|---------------------|
|----------------------------|---------------------|
|----------------------------|---------------------|
|----------------------------|---------------------|
|-000-00-00--------000-00-00-|-8-8-8-8/10-10-10-10-|

|----------------------------|---------------------|
|----------------------------|---------------------|
|----------------------------|---------------------|
|----------------------------|---------------------|
|-000-00-00--------000-00-00-|-8-8-8-8/10-10-10-10-|

|----------------------------------------------------|
|----------------------------------------------------|
|---------10-----10-------10---------7-----7-------7-|
|----------------------------------------------------|
|-8-8-8-8----8-8----8-8-8----5-5-5-5---5-5---5-5-5---|

|------------------|------------------|------------------|
|------------------|------------------|------------------|
|------------------|------------------|------------------|
|-----5/7\5--------|-----5/7\5--------|-----5/7\5--------|
|-0-0-------5-xx-3-|-0-0-------5-xx-3-|-0-0-------5-xx-3-|

|---------------------|------------------|------------------|
|---------------------|------------------|------------------|
|---------------------|------------------|------------------|
|---------------------|-----5/7\5--------|-----5/7\5--------|
|-8-8-8-8/10-10-10-10-|-0-0-------5-xx-3-|-0-0-------5-xx-3-|

|------------------|------------|
|------------------|------------|
|------------------|------------|
|-----5/7\5--------|------------|
|-0-0-------5-xx-3-|-8-8-8-8-10-|

|--------------------------------------|---------------------------------|
|--------------------------------------|---------------------------------|
|--------------------------------------|---------------------------------|
|----------------------------10p9-12p9-|---------------------------------|
|-0-0-12-0-12p10-0-0-0-0-0-0-----------|-0-0-12-0-12p10-0-0-0-0-0-0-5/10-|

|----------------------------|---------------------|
|----------------------------|---------------------|
|----------------------------|---------------------|
|----------------------------|---------------------|
|-000-00-00--------000-00-00-|-8-8-8-8/10-10-10-10-|

|----------------------------|---------------------|
|----------------------------|---------------------|
|----------------------------|---------------------|
|----------------------------|---------------------|
|-000-00-00--------000-00-00-|-8-8-8-8/10-10-10-10-|

|-----------------------------------------------------|
|-----------------------------------------------------|
|---------10-----10-------10---------7-----7----------|
|-----------------------------------------------------|
|-8-8-8-8----8-8----8-8-8----5-5-5-5---5-5---5-5-5-5\-|

|------------------|------------------|------------------|
|------------------|------------------|------------------|
|------------------|------------------|------------------|
|-----5/7\5--------|-----5/7\5--------|-----5/7\5--------|
|-0-0-------5-xx-3-|-0-0-------5-xx-3-|-0-0-------5-xx-3-|

|---------------------|------------------|------------------|
|---------------------|------------------|------------------|
|---------------------|------------------|------------------|
|---------------------|-----5/7\5--------|-----5/7\5--------|
|-8-8-8-8/10-10-10-10-|-0-0-------5-xx-3-|-0-0-------5-xx-3-|

|------------------|------------|
|------------------|------------|
|------------------|------------|
|-----5/7\5--------|------------|
|-0-0-------5-xx-3-|-8-8-8-8-10-|

|---------------------------------------|
|---------------------------------------|
|---------------------------------------|
|---------------------------------------|
|-8-8-8-8--8-8-8-8--8p7--0-0-0-0--0-0-3-|

|---------------------------------------|
|---------------------------------------|
|---------------------------------------|
|---------------------------------------|
|-8-8-8-8--8-8-8-8--8p7--0-0-0-0--0-0-3-|

|-------------------------------------------|
|-------------------------------------------|
|---------10-----10-------10----------------|
|-------------------------------------------|
|-8-8-8-8----8-8----8-8-8----5-5-5-5-xxxx-5~|

Short Pause

|-----------------------------------------|
|-----------------------------------------|
|-----------------------------------------|
|-----------------------------------------|
|-8-8-8-8-8-8-8-8/10-10-10-10-10-10-10-10-|

|------------------|------------------|------------------|
|------------------|------------------|------------------|
|------------------|------------------|------------------|
|-----5/7\5--------|-----5/7\5--------|-----5/7\5--------|
|-0-0-------5-xx-3-|-0-0-------5-xx-3-|-0-0-------5-xx-3-|

|---------------------|------------------|------------------|
|---------------------|------------------|------------------|
|---------------------|------------------|------------------|
|---------------------|-----5/7\5--------|-----5/7\5--------|
|-8-8-8-8/10-10-10-10-|-0-0-------5-xx-3-|-0-0-------5-xx-3-|

                                                           x3
|------------------| |------------------------------------| |
|------------------|o|------------------------------------|o|
|------------------| |------------------------------------| |
|-----5/7\5--------|o|------------------------------------|o|
|-0-0-------5-xx-3-| |-8-8-8-8-8-8-8-10-10-10-10-10-10-10-| |

|--------------------------------------|------------------------------|
|--------------------------------------|------------------------------|
|--------------------------------------|------------------------------|
|----------------------------10p9-12p9-|------------------------------|
|-0-0-12-0-12p10-0-0-0-0-0-0-----------|-0-0-12-0-12p10-0-0-0-0-0-0-8-|

|--------------------------------------|---------------------|
|--------------------------------------|---------------------|
|--------------------------------------|---------------------|
|----------------------------10p9-12p9-|---------------------|
|-0-0-12-0-12p10-0-0-0-0-0-0-----------|-8-8-8-8/10-10-10-10-|

|----------------------------|-----------------------------------|
|----------------------------|-----------------------------------|
|----------------------------|-----------------------------------|
|----------------------------|-----------------------------------|
|-0-0-12-0-12p10-0-0-0-0-0-0-|-0-0-12-0-12p10-0-0-0-0-0-0----0-0-|

|--------------------------------------|-------------------------|
|--------------------------------------|-------------------------|
|--------------------------------------|-------------------------|
|----------------------------10p9-12p9-|-------------------------|
|-0-0-12-0-12p10-0-0-0-0-0-0-----------|-8-8-8-8/10-10-10-10---0-|

ALSO NOTE  This tab is being added to my Camotose Album Tab Aswell
Suggest correction
What's this?
You can suggest a correction to this tab. Community and Mods will review your correction and vote to approve or reject it.
comments
We did not receive enough feedback on this tab! Please rate:
print report bad tab
1 2 3 4 5
1 comment total.
0 reply
daimondbass11 121 wrote on June 2 2009, 01:41 pm

its tabbed great! but i wished you had labeled which part was which, like the chorus,verse,bridge, stuff like that

guest
You may want to rate the tab now too:
select rating
Please do not post tabs as comments. Select "correction" instead!