Oops, an error
Loading. Please wait.

Live Free Or Let Me Die intro tab

version 1
version 1

Intro

Whole song

Interactive

by Skillet
6,345 views 9 this week
2 commentsread comments
1 2 3 4 5
x 3
add to favorites
×
Save as Personal and add changes to this tab that will be seen only by you. Learn more ›
×
You can save this tab as Personal to edit and correct it or add notes. All changes will be seen only by you. Learn more »
launch autoscroll
font size
0
reset
how to read this tab
guitar tuner
edit
Autoscroll
slow
fast
+/-
esc
set tempo
stop
Skillet - Comatose Deluxe Edition
Live Free or Let Me Die
Tabbed By U B the band
Tuning Drop B (Drop D and 1 1/2 steps down)

Legend
p-pull off
x-scratch
b-bend

If you don't have a tuner go to http://www.get-tuned.com/guitar_tuner.php

Intro: Guitar 1 (Clean with Delay)
C#|------------------------------------------|
G#|--10--------11---10---8-----10/6--6----5--|
 E|--------7---------------------------------|
 B|------------------------------------------|
F#|------------------------------------------|
 B|------------------------------------------|

Guitar 1: (distorted/tremolo pick)
C#|-------171717------181818-171717-15151515-|
G#|-------------151515-----------------------|
 E|------------------------------------------|
 B|------------------------------------------|
F#|------------------------------------------|
 B|------------------------------------------|

Guitar 2: (distorted)
C#|------------------------------------------|
G#|------------------------------------------|
 E|------------------------------------------|
 B|--x-x-------------------------------------|
F#|--x-x---------------------------8p7-10p7--|
 B|--x-x--00-12-00-12p10-0-8p7-8p7-----------|

Guitar 1 cont. (distorted/tremolo pick)
C#|--171717------202020-181818--1717--1818---|
G#|--------151515----------------------------|
 E|------------------------------------------|
 B|------------------------------------------|
F#|------------------------------------------|
 B|------------------------------------------|

Guitar 2 cont.
C#|------------------------------------------|
G#|------------------------------------------|
 E|------------------------------------------|
 B|------------------------------x----3--3---|
F#|------------------------------x----3--3---|
 B|--00-12-00-12p10-0-8p7-8p7----x----3--3---|

Guitar 1 cont. (distorted/tremolo pick)
C#|--171717------181818-171717-15151515------|
G#|--------151515----------------------------|
 E|------------------------------------------|
 B|------------------------------------------|
F#|------------------------------------------|
 B|------------------------------------------|

Guitar 2 cont.
C#|------------------------------------------|
G#|------------------------------------------|
 E|------------------------------------------|
 B|------------------------------------------|
F#|---------------------------8p7-10p7-------|
 B|--00-12-00-12p10-0-8p7-8p7----------------|

Guitar 1 cont. (distorted/tremolo pick)
C#|----------171717--------------------------|
G#|--18181818-------17171717-17b-------------|
 E|------------------------------------------|
 B|------------------------------------------|
F#|------------------------------------------|
 B|------------------------------------------|
                              ^-Hold bend (volume fades)

Guitar 2 cont.
C#|------------------------------------------|
G#|------------------------------------------|
 E|------------------------------------------|
 B|--10--10--10--10---12--12--12--12---------|
F#|--8---8---8---8----10--10--10--10---------|
 B|--8---8---8---8----10--10--10--10---------|

Guitar 2 (clean) palm muted
C#|------------------------------------------|
G#|------------------------------------------|
 E|--77------------------77------------------|
 B|-----88-7--7-5-7-8-7-----88-7--7-5-7-8-7--|
F#|------------------------------------------|
 B|------------------------------------------|

I'll have a whole tab up soon.
Suggest correction
Creating personal tab
Creating personal tab
You can edit any tab online and save it as your Personal.

You can edit, replace or remove any tab part or add personal notes – all changes will be seen only by you.

Personal tabs can be accessed anytime from any device, even offline.
Learn more »
Give kudos to tab author, rate the tab!
1 2 3 4 5
comments
print report bad tab
2 comments total.
0 reply
Rynocreature777 10 Feb 12, 2009 03:09 PM

you are hearing the bass part when you listen to the song,its not good to tune your guitar that low,you are hearing the bass part

+1 reply
U B the band 3,023 Feb 12, 2009 06:56 PM

It's perfectly fine to have your guitar tuned down to Drop B. Skillet did tune to Drop B for this song (just like Whispers In The Dark). The song would sound funny an octave up.

guest
You may want to rate the tab now too:
select rating
Wanna post a correction for this tab? Suggest correction