Oops, an error
Loading. Please wait.

Live Free Or Let Me Die tab

version 2
version 2

Whole song

Interactive

by Skillet
9,613 views 9 this week
12 commentsread comments
1 2 3 4 5
x 9
add to favorites
×
Save as Personal and add changes to this tab that will be seen only by you. Learn more ›
×
You can save this tab as Personal to edit and correct it or add notes. All changes will be seen only by you. Learn more »
launch autoscroll
font size
0
reset
how to read this tab
guitar tuner
edit
Autoscroll
slow
fast
+/-
esc
set tempo
stop
Skillet - Comatose Deluxe Edition
Live Free or Let Me Die
Tabbed By U B the band
Tuning Drop B (Drop D and 1 1/2 steps down)

Legend
p-pull off                  b-bend                  /-slide up     
x-scratch                   f-crescendo             \-slide down

For tuning go to http://www.get-tuned.com/guitar_tuner.php

Intro: Guitar 1 (Clean with Delay)
C#|-----------------------------------------------------------------|
G#|--10----------------11-----10-----8-------10-/6----6------5------|
 E|------------7----------------------------------------------------|
 B|-----------------------------------------------------------------|
F#|-----------------------------------------------------------------|
 B|-----------------------------------------------------------------|

Intro Guitar 1: (distorted)
C#|-------17-17-17------------18-18-18-17-17-17--15-15-15-15--------|
G#|-----------------15-15-15----------------------------------------|
 E|-----------------------------------------------------------------|
 B|-----------------------------------------------------------------|
F#|-----------------------------------------------------------------|
 B|-----------------------------------------------------------------|

Intro Guitar 2: (distorted)
C#|-----------------------------------------------------------------|
G#|-----------------------------------------------------------------|
 E|-----------------------------------------------------------------|
 B|--x--x-----------------------------------------------------------|
F#|--x--x---------------------------------------8p7---10p7----------|
 B|--x--x--0-0--12--0-0--12p10---0---8p7--8p7-----------------------|

Intro Guitar 1 cont. (distorted)
C#|--17-17-17------------20-20-20--18-18-18--17-17--18-18-----------|
G#|------------15-15-15---------------------------------------------|
 E|-----------------------------------------------------------------|
 B|-----------------------------------------------------------------|
F#|-----------------------------------------------------------------|
 B|-----------------------------------------------------------------|

Intro Guitar 2 cont.
C#|-----------------------------------------------------------------|
G#|-----------------------------------------------------------------|
 E|-----------------------------------------------------------------|
 B|------------------------------------------x------3--3------------|
F#|------------------------------------------x------3--3------------|
 B|--0-0--12--0-0--12p10---0---8p7--8p7------x------3--3------------|

Intro Guitar 1 cont. (distorted)
C#|--17-17-17------------18-18-18-17-17-17--15-15-15-15-------------|
G#|------------15-15-15---------------------------------------------|
 E|-----------------------------------------------------------------|
 B|-----------------------------------------------------------------|
F#|-----------------------------------------------------------------|
 B|-----------------------------------------------------------------|

Intro Guitar 2: (distorted)
C#|-----------------------------------------------------------------|
G#|-----------------------------------------------------------------|
 E|-----------------------------------------------------------------|
 B|-----------------------------------------------------------------|
F#|---------------------------------------8p7---10p7----------------|
 B|--0-0--12--0-0--12p10---0---8p7--8p7-----------------------------|

Intro Guitar 1 cont. (distorted/tremolo pick)
C#|--------------17-------------------------------------------------|
G#|--18----------------------17b------------------------------------|
 E|-----------------------------------------------------------------|
 B|-----------------------------------------------------------------|
F#|-----------------------------------------------------------------|
 B|-----------------------------------------------------------------|
                               ^-Hold bend (volume fades)

Intro Guitar 2 cont.
C#|-----------------------------------------------------------------|
G#|-----------------------------------------------------------------|
 E|-----------------------------------------------------------------|
 B|--10----10----10----10----12----12----12----12-------------------|
F#|--8-----8-----8-----8-----10----10----10----10-------------------|
 B|--8-----8-----8-----8-----10----10----10----10-------------------|

Intro Guitar 2 (clean) palm muted
C#|-----------------------------------------------------------------|
G#|-----------------------------------------------------------------|
 E|--7--7----------------------7--7---------------------------------|
 B|--------8--8-7---7-5-7-8-7--------8--8-7---7-5-7-8-7-------------|
F#|-----------------------------------------------------------------|
 B|-----------------------------------------------------------------|

Verse Guitar 1 (distorted)
C#|-----------------------------------------------------------------|
G#|-----------------------------------------------------------------|
 E|-----------------------------------------------------------------|
 B|-----------------------------------------------------------------|
F#|--0------000--00--00---------------000--00--00-------------------|
 B|--0------000--00--00---------------000--00--00-------------------|
     f

Guitar 2 (clean) palm muted
C#|-----------------------------------------------------------------|
G#|-----------------------------------------------------------------|
 E|---------7--7----------------------7--7--------------------------|
 B|---------------8--8-7---7-5-7-8-7--------8--8-7---7-5-7-8-7------|
F#|-----------------------------------------------------------------|
 B|-----------------------------------------------------------------|

Verse Guitar 1 (distorted)
C#|-----------------------------------------------------------------|
G#|-----------------------------------------------------------------|
 E|-----------------------------------------------------------------|
 B|--10----10----10----10----12----12----12----12-------------------|
F#|--8-----8-----8-----8-----10----10----10----10-------------------|
 B|--8-----8-----8-----8-----10----10----10----10-------------------|

Verse Guitar 1 (distorted)
C#|-----------------------------------------------------------------|
G#|-----------------------------------------------------------------|
 E|-----------------------------------------------------------------|
 B|-----------------------------------------------------------------|
F#|--000--00--00---------------000--00--00--------------------------|
 B|--000--00--00---------------000--00--00--------------------------|

Guitar 2 (clean) palm muted
C#|-----------------------------------------------------------------|
G#|-----------------------------------------------------------------|
 E|--7--7----------------------7--7---------------------------------|
 B|--------8--8-7---7-5-7-8-7--------8--8-7---7-5-7-8-7-------------|
F#|-----------------------------------------------------------------|
 B|-----------------------------------------------------------------|

Verse Guitar 1 (distorted)
C#|-----------------------------------------------------------------|
G#|-----------------------------------------------------------------|
 E|-----------------------------------------------------------------|
 B|--10----10----10----10----12----12----12----12-------------------|
F#|--8-----8-----8-----8-----10----10----10----10-------------------|
 B|--8-----8-----8-----8-----10----10----10----10-------------------|

Pre-Chorus: Both guitars
C#|-----------------------------------------------------------------|
G#|-----------------------------------------------------------------|
 E|-----------------------------------------------------------------|
 B|----------8-----8--------8---------------5-----5--------5--------|
F#|----------8-----8--------8---------------5-----5--------5--------|
 B|--8-8-8-8-8--8--8--8-8-8-8--8-8--5-5-5-5-5--5--5--5-5-5-5--------|
     pmpmpmpm   pm    pmpmpm   pmpm pmpmpmpm   pm    pmpmpm

Chorus: Both guitars
C#|-----------------------------------------------------------------|
G#|-----------------------------------------------------------------|
 E|-----------------------------------------------------------------|
 B|--0--0----------5--5-x--x---3----0--0----------5--5-x--x---3-----|
F#|--0--0--3/5\3---5--5-x--x---3----0--0--3/5\3---5--5-x--x---3-----|
 B|--0--0----------5--5-x--x---3----0--0----------5--5-x--x---3-----|

Chorus: Both guitars
C#|-----------------------------------------------------------------|
G#|-----------------------------------------------------------------|
 E|-----------------------------------------------------------------|
 B|--0--0----------5--5-x--x---3----10-10-10-10-12--12--12--12------|
F#|--0--0--3/5\3---5--5-x--x---3----8--8--8--8--10--10--10--10------|
 B|--0--0----------5--5-x--x---3----8--8--8--8--10--10--10--10------|

Chorus: Both guitars
C#|-----------------------------------------------------------------|
G#|-----------------------------------------------------------------|
 E|-----------------------------------------------------------------|
 B|--0--0----------5--5-x--x---3----0--0----------5--5-x--x---3-----|
F#|--0--0--3/5\3---5--5-x--x---3----0--0--3/5\3---5--5-x--x---3-----|
 B|--0--0----------5--5-x--x---3----0--0----------5--5-x--x---3-----|

Chorus: Both guitars
C#|-----------------------------------------------------------------|
G#|-----------------------------------------------------------------|
 E|-----------------------------------------------------------------|
 B|--0--0----------5--5-x--x---3----10-10-10-10-12------------------|
F#|--0--0--3/5\3---5--5-x--x---3----8--8--8--8--10------------------|
 B|--0--0----------5--5-x--x---3----8--8--8--8--10------------------|

After chorus: guitar 1
C#|-----------------------------------------------------------------|
G#|-----------------------------------------------------------------|
 E|-----------------------------------------------------------------|
 B|-----------------------------------------------------------------|
F#|---------------------------------------8p7---10p7----------------|
 B|--0-0--12--0-0--12p10---0---8p7--8p7-----------------------------|

Cont.
C#|-----------------------------------------------------------------|
G#|-----------------------------------------------------------------|
 E|-----------------------------------------------------------------|
 B|----------------------------------5--/10-------------------------|
F#|----------------------------------5--/10-------------------------|
 B|--0-0--12--0-0--12p10---0---8p7---5--/10-------------------------|

Verse 2 Guitar 1 (distorted)
C#|-----------------------------------------------------------------|
G#|-----------------------------------------------------------------|
 E|-----------------------------------------------------------------|
 B|-----------------------------------------------------------------|
F#|--000--00--00---------------000--00--00--------------------------|
 B|--000--00--00---------------000--00--00--------------------------|

Verse 2 Guitar 2 (clean) palm muted
C#|-----------------------------------------------------------------|
G#|-----------------------------------------------------------------|
 E|--7--7----------------------7--7---------------------------------|
 B|--------8--8-7---7-5-7-8-7--------8--8-7---7-5-7-8-7-------------|
F#|-----------------------------------------------------------------|
 B|-----------------------------------------------------------------|

Verse 2 Guitar 1 (distorted)
C#|-----------------------------------------------------------------|
G#|-----------------------------------------------------------------|
 E|-----------------------------------------------------------------|
 B|--10----10----10----10----12----12----12----12-------------------|
F#|--8-----8-----8-----8-----10----10----10----10-------------------|
 B|--8-----8-----8-----8-----10----10----10----10-------------------|

Verse 2 Guitar 1 (distorted)
C#|-----------------------------------------------------------------|
G#|-----------------------------------------------------------------|
 E|-----------------------------------------------------------------|
 B|-----------------------------------------------------------------|
F#|--000--00--00---------------000--00--00--------------------------|
 B|--000--00--00---------------000--00--00--------------------------|

Verse 2 Guitar 2 (low distortion)
C#|-----------------------------------------------------------------|
G#|-----------------------------------------------------------------|
 E|-----------------------------------------------------------------|
 B|-----------------7-5-7-8-7-----------------7-5-7-8-7-------------|
F#|-----------------------------------------------------------------|
 B|-----------------------------------------------------------------|

Verse 2 Guitar 1 (distorted)
C#|-----------------------------------------------------------------|
G#|-----------------------------------------------------------------|
 E|-----------------------------------------------------------------|
 B|--10----10----10----10----12----12----12----12-------------------|
F#|--8-----8-----8-----8-----10----10----10----10-------------------|
 B|--8-----8-----8-----8-----10----10----10----10-------------------|

Pre-Chorus: Both guitars
C#|-----------------------------------------------------------------|
G#|-----------------------------------------------------------------|
 E|-----------------------------------------------------------------|
 B|----------8-----8--------8---------------5-----5--------5--------|
F#|----------8-----8--------8---------------5-----5--------5--------|
 B|--8-8-8-8-8--8--8--8-8-8-8--8-8--5-5-5-5-5--5--5--5-5-5-5--------|
     pmpmpmpm   pm    pmpmpm   pmpm pmpmpmpm   pm    pmpmpm

Chorus: Both guitars
C#|-----------------------------------------------------------------|
G#|-----------------------------------------------------------------|
 E|-----------------------------------------------------------------|
 B|--0--0----------5--5-x--x---3----0--0----------5--5-x--x---3-----|
F#|--0--0--3/5\3---5--5-x--x---3----0--0--3/5\3---5--5-x--x---3-----|
 B|--0--0----------5--5-x--x---3----0--0----------5--5-x--x---3-----|

Chorus: Both guitars
C#|-----------------------------------------------------------------|
G#|-----------------------------------------------------------------|
 E|-----------------------------------------------------------------|
 B|--0--0----------5--5-x--x---3----10-10-10-10-12--12--12--12------|
F#|--0--0--3/5\3---5--5-x--x---3----8--8--8--8--10--10--10--10------|
 B|--0--0----------5--5-x--x---3----8--8--8--8--10--10--10--10------|

Chorus: Both guitars
C#|-----------------------------------------------------------------|
G#|-----------------------------------------------------------------|
 E|-----------------------------------------------------------------|
 B|--0--0----------5--5-x--x---3----0--0----------5--5-x--x---3-----|
F#|--0--0--3/5\3---5--5-x--x---3----0--0--3/5\3---5--5-x--x---3-----|
 B|--0--0----------5--5-x--x---3----0--0----------5--5-x--x---3-----|

Chorus: Both guitars
C#|-----------------------------------------------------------------|
G#|-----------------------------------------------------------------|
 E|-----------------------------------------------------------------|
 B|--0--0----------5--5-x--x---3----10-10-10-10-12--12--12--12------|
F#|--0--0--3/5\3---5--5-x--x---3----8--8--8--8--10--10--10--10------|
 B|--0--0----------5--5-x--x---3----8--8--8--8--10--10--10--10------|

Bridge:
C#|-----------------------------------------------------------------|
G#|-----------------------------------------------------------------|
 E|-----------------------------------------------------------------|
 B|--8--8--8--8---8--8--8--8---8-7----0--0--0--0---0--0----3--3-----|
F#|--8--8--8--8---8--8--8--8---8-7----0--0--0--0---0--0----3--3-----|
 B|--8--8--8--8---8--8--8--8---8-7----0--0--0--0---0--0----3--3-----|

Cont.
C#|-----------------------------------------------------------------|
G#|-----------------------------------------------------------------|
 E|-----------------------------------------------------------------|
 B|--8--8--8--8---8--8--8--8---8-7----0--0--0--0---0--0----3--3-----|
F#|--8--8--8--8---8--8--8--8---8-7----0--0--0--0---0--0----3--3-----|
 B|--8--8--8--8---8--8--8--8---8-7----0--0--0--0---0--0----3--3-----|

Cont.
C#|-----------------------------------------------------------------|
G#|-----------------------------------------------------------------|
 E|-----------------------------------------x-x-x-x-----------------|
 B|----------8-----8--------8---------------x-x-x-x--5--------------|
F#|----------8-----8--------8---------------x-x-x-x--5--------------|
 B|--8-8-8-8-8--8--8--8-8-8-8--8-8--5-5-5-5-x-x-x-x--5--------------|
     pmpmpmpm   pm    pmpmpm   pmpm

After Bridge (keyboard for guitar)
C#|--13----10----12-------13----10----12----15-------13----10----12-|
G#|-----------------------------------------------------------------|
 E|-----------------------------------------------------------------|
 B|-----------------------------------------------------------------|
F#|-----------------------------------------------------------------|
 B|-----------------------------------------------------------------|

Pre-Chorus 2 Guitar 1
C#|-----------------------------------------------------------------|
G#|-----------------------------------------------------------------|
 E|-----------------------------------------------------------------|
 B|------------8---8-8--8-8--10--10-10--10-10-10---\\\\\\\\\\-------|
F#|------------8---8-8--8-8--10--10-10--10-10-10---\\\\\\\\\\-------|
 B|------------8---8-8--8-8--10--10-10--10-10-10---\\\\\\\\\\-------|

Chorus: Both guitars
C#|-----------------------------------------------------------------|
G#|-----------------------------------------------------------------|
 E|-----------------------------------------------------------------|
 B|--0--0----------5--5-x--x---3----0--0----------5--5-x--x---3-----|
F#|--0--0--3/5\3---5--5-x--x---3----0--0--3/5\3---5--5-x--x---3-----|
 B|--0--0----------5--5-x--x---3----0--0----------5--5-x--x---3-----|

Chorus: Both guitars
C#|-----------------------------------------------------------------|
G#|-----------------------------------------------------------------|
 E|-----------------------------------------------------------------|
 B|--0--0----------5--5-x--x---3----10-10-10-10-12--12--12--12------|
F#|--0--0--3/5\3---5--5-x--x---3----8--8--8--8--10--10--10--10------|
 B|--0--0----------5--5-x--x---3----8--8--8--8--10--10--10--10------|

Chorus: Both guitars
C#|-----------------------------------------------------------------|
G#|-----------------------------------------------------------------|
 E|-----------------------------------------------------------------|
 B|--0--0----------5--5-x--x---3----0--0----------5--5-x--x---3-----|
F#|--0--0--3/5\3---5--5-x--x---3----0--0--3/5\3---5--5-x--x---3-----|
 B|--0--0----------5--5-x--x---3----0--0----------5--5-x--x---3-----|

Chorus: Both guitars
C#|-----------------------------------------------------------------|
G#|-----------------------------------------------------------------|
 E|-----------------------------------------------------------------|
 B|--0--0----------5--5-x--x---3----10-10-10-10-12--12--12--12------|
F#|--0--0--3/5\3---5--5-x--x---3----8--8--8--8--10--10--10--10------|
 B|--0--0----------5--5-x--x---3----8--8--8--8--10--10--10--10------|

Outro Chorus Guitar 1
C#|-----------------------------------------------------------------|
G#|-----------------------------------------------------------------|
 E|-----------------------------------------------------------------|
 B|--8-8-8-8-8-8-8-8--10-10-10-10-10-10-10-10-10--8-8-8-8-8-8-------|
F#|--8-8-8-8-8-8-8-8--10-10-10-10-10-10-10-10-10--8-8-8-8-8-8-------|
 B|--8-8-8-8-8-8-8-8--10-10-10-10-10-10-10-10-10--8-8-8-8-8-8-------|

Outro Chorus Guitar 2 (distorted & palm muted)
C#|-----------------------------------------------------------------|
G#|-10-10-8-8-10-10-11-10---10---8---8---8-------10-10-8-8-10-10-11-|
 E|-10-10-9-9-10-10----10---10---9-----------9-------------------12-|
 B|-----------------------------------------------------------------|
F#|-----------------------------------------------------------------|
 B|-----------------------------------------------------------------|
                   Slowly let off palm mute --^

Outro Chorus Guitar 1
C#|-----------------------------------------------------------------|
G#|-----------------------------------------------------------------|
 E|-----------------------------------------------------------------|
 B|--10-10-10-10-10-10-10-10-10-10--8-8-8-8-8-8--10-10--10----------|
F#|--10-10-10-10-10-10-10-10-10-10--8-8-8-8-8-8--10-10--10----------|
 B|--10-10-10-10-10-10-10-10-10-10--8-8-8-8-8-8--10-10--10----------|

Outro Chorus Guitar 2 (distorted)
C#|---------------------------------------------------20-20---------|
G#|--10--10--8--8--11--11--10--10---18-18-17-17-18-18---------------|
 E|--10--10--9--9---------------------------------------------------|
 B|-----------------------------------------------------------------|
F#|-----------------------------------------------------------------|
 B|-----------------------------------------------------------------|

Outro Guitar 1: (distorted)
C#|--17-17-17------------18-18-18-17-17-17--15-15-15-15-------------|
G#|------------15-15-15---------------------------------------------|
 E|-----------------------------------------------------------------|
 B|-----------------------------------------------------------------|
F#|-----------------------------------------------------------------|
 B|-----------------------------------------------------------------|

Outro Guitar 2: (distorted)
C#|-----------------------------------------------------------------|
G#|-----------------------------------------------------------------|
 E|-----------------------------------------------------------------|
 B|-----------------------------------------------------------------|
F#|---------------------------------------8p7---10p7----------------|
 B|--0-0--12--0-0--12p10---0---8p7--8p7-----------------------------|

Outro Guitar 1 cont. (distorted)
C#|--17-17-17------------20-20-20--18-18-18--17-----18--------------|
G#|------------15-15-15---------------------------------------------|
 E|-----------------------------------------------------------------|
 B|-----------------------------------------------------------------|
F#|-----------------------------------------------------------------|
 B|-----------------------------------------------------------------|

Outro Guitar 2 cont.
C#|-----------------------------------------------------------------|
G#|-----------------------------------------------------------------|
 E|-----------------------------------------------------------------|
 B|-----------------------------------------------------------------|
F#|-----------------------------------------------------------------|
 B|--0-0--12--0-0--12p10---0---8------------------------------------|

Outro Guitar 1 cont. (distorted)
C#|--17-17-17------------18-18-18-17-17-17--15-15-15-15-------------|
G#|------------15-15-15---------------------------------------------|
 E|-----------------------------------------------------------------|
 B|-----------------------------------------------------------------|
F#|-----------------------------------------------------------------|
 B|-----------------------------------------------------------------|

Outro Guitar 2: (distorted)
C#|-----------------------------------------------------------------|
G#|-----------------------------------------------------------------|
 E|-----------------------------------------------------------------|
 B|-----------------------------------------------------------------|
F#|---------------------------------------8p7---10p7----------------|
 B|--0-0--12--0-0--12p10---0---8p7--8p7-----------------------------|

Outro Guitar 1 cont. (distorted/tremolo pick)
C#|--------------17-------------------------------------------------|
G#|--18----------------------17b------------------------------------|
 E|-----------------------------------------------------------------|
 B|-----------------------------------------------------------------|
F#|-----------------------------------------------------------------|
 B|-----------------------------------------------------------------|
                               ^-Hold bend (volume fades)

Outro Guitar 2 cont.
C#|-----------------------------------------------------------------|
G#|-----------------------------------------------------------------|
 E|-----------------------------------------------------------------|
 B|--10----10----10----10----12----12----12----12-------------------|
F#|--8-----8-----8-----8-----10----10----10----10-------------------|
 B|--8-----8-----8-----8-----10----10----10----10-------------------|


Outro Guitar 1: (distorted)
C#|--17-17-17------------18-18-18-17-17-17--------------------------|
G#|------------15-15-15---------------------------------------------|
 E|-----------------------------------------------------------------|
 B|-----------------------------------------------------------------|
F#|-----------------------------------------------------------------|
 B|-----------------------------------------------------------------|

Outro Guitar 2: (distorted)
C#|-----------------------------------------------------------------|
G#|-----------------------------------------------------------------|
 E|-----------------------------------------x---x---x---------------|
 B|-----------------------------------------x---x---x---------------|
F#|-----------------------------------------x---x---x---------------|
 B|--0-0--12--0-0--12p10---0---8p7--8p7-----x---x---x---------------|

Outro Guitar 1 cont. (distorted)
C#|--17-17-17------------20-20-20--18-18-18--17-17--18-18-----------|
G#|------------15-15-15---------------------------------------------|
 E|-----------------------------------------------------------------|
 B|-----------------------------------------------------------------|
F#|-----------------------------------------------------------------|
 B|-----------------------------------------------------------------|

Outro Guitar 2 cont.
C#|-----------------------------------------------------------------|
G#|-----------------------------------------------------------------|
 E|-----------------------------------------------------------------|
 B|-----------------------------------------0----0------------------|
F#|-----------------------------------------0----0------------------|
 B|--0-0--12--0-0--12p10---0---8p7--8p7-----0----0------------------|

Outro Guitar 1 cont. (distorted)
C#|--17-17-17------------18-18-18-17-17-17--15-15-15-15-------------|
G#|------------15-15-15---------------------------------------------|
 E|-----------------------------------------------------------------|
 B|-----------------------------------------------------------------|
F#|-----------------------------------------------------------------|
 B|-----------------------------------------------------------------|

Outro Guitar 2: (distorted)
C#|-----------------------------------------------------------------|
G#|-----------------------------------------------------------------|
 E|-----------------------------------------------------------------|
 B|-----------------------------------------------------------------|
F#|---------------------------------------8p7---10p7----------------|
 B|--0-0--12--0-0--12p10---0---8p7--8p7-----------------------------|

Outro Guitar 1 cont. (distorted/tremolo pick)
C#|--------------17-------------------------------------------------|
G#|--18----------------------17----------18--------------15---------|
 E|-----------------------------------------------------------------|
 B|-----------------------------------------------------------------|
F#|-----------------------------------------------------------------|
 B|-----------------------------------------------------------------|

Outro Guitar 2 cont.
C#|-----------------------------------------------------------------|
G#|-----------------------------------------------------------------|
 E|-----------------------------------------------------------------|
 B|--10----10----10----10----12----12----12----12--------0----------|
F#|--8-----8-----8-----8-----10----10----10----10--------0----------|
 B|--8-----8-----8-----8-----10----10----10----10--------0----------|

Finished!

== * UPDATED 7/11/2008 UPDATED * ==

            
            
Suggest correction
Creating personal tab
Creating personal tab
You can edit any tab online and save it as your Personal.

You can edit, replace or remove any tab part or add personal notes – all changes will be seen only by you.

Personal tabs can be accessed anytime from any device, even offline.
Learn more »
comments
print report bad tab
12 comments total. Showing first comments.
+1 reply
Still Breath 167 Jul 25, 2008 05:43 PM

Again... beautifully done. keep it up man.

+1 reply
U B the band 3,023 Feb 12, 2009 06:53 PM

It's perfectly fine to have your guitar tuned down to Drop B. Skillet did tune to Drop B for this song (just like Whispers In The Dark). The song would sound funny an octave up.

0 reply
forrestk777 10 Feb 14, 2009 03:12 PM

its deffinatly in drop B
good tab!

guest
You may want to rate the tab now too:
select rating
Wanna post a correction for this tab? Suggest correction