Oops, an error
Loading. Please wait.

Lucy tab

version 1
version 1

Whole song

Interactive

by Skillet
685 views 9 this week
no commentswrite comment
1 2 3 4 5
2 more votes to show rating
add to favorites
×
Save as Personal and add changes to this tab that will be seen only by you. Learn more ›
×
You can save this tab as Personal to edit and correct it or add notes. All changes will be seen only by you. Learn more »
launch autoscroll
font size
0
reset
how to read this tab
guitar tuner
backing track
0:00
0:00
edit
Autoscroll
slow
fast
+/-
esc
set tempo
stop
-------------------------------------------------------------------------------
                             Lucy - Skillet
-------------------------------------------------------------------------------
Tabbed by: xBillie
Tuning: Standard / Drop D

Guitar 1: Standard (EADGBe) Acoustic
Guitar 2: Distorted Dropped D (DADGBe) electric.

I noticed there is no tabs for this song, so here we go:

Intro: No Guitar

Verse 1: (Acoustic Guitar) LET RING ALL CHORDS 

G                              C
Hey lucy, i remember your name.
G                              C
I left a dozen roses on your grave today.
Em                                              F
I'm in the grass on my knees, wipe the leaves away.
Em               D
I Just came to talk for a while.
  C
I got some things i need to say.

Chorus 1 (Acoustic Guitar):

    G                  D               E       D        C        D
e|------3-------3----------2---2-----------0-------2--------0--------2-------|
B|--------3-------3----------3---3-------------------3--------1--------3-----|
G|----0-------0----------2-----2---------0-------2-----------------2---------|
D|--0------------------0---------------2-------0----------2------0-----------|
A|------------------------------------------------------3--------------------|
E|---------------------------------------------------------------------------|
    
    E               D              C        D         E        D      G
e|------0-----0---------2----2---------0---------2--------0--------2---3-3-3-|
B|--------0-----0---------3----3---------1---------3--------0----------3-3-3-|
G|----0-----0---------2-----2------------------2--------0--------2-----------|
D|--2---------------0----------------2-------0---------2-------0-------------|
A|---------------------------------3-----------------------------------------|
E|---------------------------------------------------------------------------|


Verse 2: (Acoustic Guitar) STRUM ALL CHORDS

G                                    C
Hey Lucy, i remembered your birthday.
G                                    C
They said it'd bring some closure to say your name.
Em                                          F
I know I'd do it all different if i had the chance.
Em                       D
But all i got are theses roses to give.
C                        D
And they cant help me make amendes.


Chorus 2 (Distorted electric):
 
   G5       D5        E5     D5      C5      D5    E5        D5        
e|---------------------------------------------------------------------------|
B|---------------------------------------------------------------------------|
G|-----------------------------------555555--7777----------------------------|
D|-55555555-00000000--222222-000000--555555--7777--22222222--00000000--------|
A|-55555555-00000000--222222-000000--333333--5555--22222222--00000000--------|
D|-55555555-00000000--222222-000000----------------22222222--00000000--------|
  
   C5      D5      E5        D5
e|---------------------------------------------------------------------------|
B|---------------------------------------------------------------------------|
G|-555555--777777------------------------------------------------------------|
D|-555555--777777--22222222--0000000000--------------------------------------|
A|-333333--555555--22222222--0000000000--------------------------------------|
D|-----------------22222222--0000000000--------------------------------------|

Bridge (Distored electric):

Part 1: Play twice (Here we are ..)
   E5       D5    C5   D5
e|---------------------------------------------------------------------------|
B|---------------------------------------------------------------------------|
G|----------------5555-------------------------------------------------------|
D|-222--222-20----5555-0000--------------------------------------------------|
A|-222--222-20----3333-0000--------------------------------------------------|
D|-222--222-20---------0000--------------------------------------------------|

Part 2: (Me and lucy walking hand in hand ..)
    A5            E5    D5    A5        C5        D5
e|---------------------------------------------------------------------------|
B|---------------------------------------------------------------------------|
G|--222222222222--------------22222222--55555555--77777777-------------------|
D|--222222222222---2222-0000--22222222--55555555--77777777-------------------|
A|--000000000000---2222-0000--00000000--33333333--55555555-------------------|
D|-----------------2222-0000-------------------------------------------------|

Final Chorus: (Electric Guitar)

   G5       D5        E5     D5      C5      D5    E5        D5        
e|---------------------------------------------------------------------------|
B|---------------------------------------------------------------------------|
G|-----------------------------------55--55--7777----------------------------|
D|-55555555-00000000--222222-000000--55--55--7777--22222222--00000000--------|
A|-55555555-00000000--222222-000000--33--33--5555--22222222--00000000--------|
D|-55555555-00000000--222222-000000----------------22222222--00000000--------|
  
   C5      D5      E5        D5
e|---------------------------------------------------------------------------|
B|---------------------------------------------------------------------------|
G|-555555--777777------------------------------------------------------------|
D|-555555--777777--22222222--0000000000--------------------------------------|
A|-333333--555555--22222222--0000000000--------------------------------------|
D|-----------------22222222--0000000000--------------------------------------|

Chrous continued: Play twice
   G5       D5        E5     D5      C5      D5   
e|---------------------------------------------------------------------------|
B|---------------------------------------------------------------------------|
G|-----------------------------------555555--777777--------------------------|
D|-55555555-00000000--222222-000000--555555--777777--------------------------|
A|-55555555-00000000--222222-000000--333333--555555--------------------------|
D|-55555555-00000000--222222-000000------------------------------------------|



End With G chord.



            
            
Suggest correction
Creating personal tab
Creating personal tab
You can edit any tab online and save it as your Personal.

You can edit, replace or remove any tab part or add personal notes – all changes will be seen only by you.

Personal tabs can be accessed anytime from any device, even offline.
Learn more »
Give kudos to tab author, rate the tab!
1 2 3 4 5
comments
print report bad tab
guest
You may want to rate the tab now too:
select rating
Wanna post a correction for this tab? Suggest correction