Oops, an error
Loading. Please wait.
71,073 views 18 this week
7 commentsread comments
1 2 3 4 5
x 9
add to favorites
×
Save as Personal and add changes to this tab that will be seen only by you. Learn more ›
×
You can save this tab as Personal to edit and correct it or add notes. All changes will be seen only by you. Learn more »
launch autoscroll
font size
0
reset
guitar tuner
backing track
0:00
0:00
edit
Autoscroll
slow
fast
+/-
esc
set tempo
stop
Author
Difficulty
Another single!  I'm planning on doing the album when it comes out so juest keep 
watching for Skillet bass tabs!

Bass Comes In With Vocals

B|--------------------------------------------------------|
G|--------------------------------------------------------|
D|--------------------------------------------------------|
A|--------------------------------------------------------|  x3
E|-6-6-6-8-x-8~--9-9-9-8-x-8~--6-6-6-8-x-8~--8--11--6--4--|

B|------------------------------------------------------------|
G|------------------------------------------------------------|
D|------------------------------------------------------------|
A|------------------------------------------------------------|
E|-6-6-6-8-x-8~--9-9-9-8-x-8~--6-6-6-8-x-8~--9-9-9-9-11-11-11~|

B| |-----------------------------------------|
G|o|-----------------------------------------|
D| |-----------------------------------------|
A|o|-----------------------------------------|
E| |-8-8-8-8-8-8-8-8-11-11-11-11-11-11-11-11-|

B|------------------------------| |
G|------------------------------|o|
D|------------------------------| |
A|------------------------------|o| x2
E|-9-9-9-9-9-9-9-9-8--11--6--4--| |

B| |-------------------------------| |
G|o|-------------------------------|o|
D| |-------------------------------| | x2
A|o|-------------------------------|o|
E| |-8-8--8-11-11--11-9-9--9-6~-8~-| |
                                                            
B| |--------------------------------------------------------| |
G|o|--------------------------------------------------------|o|
D| |--------------------------------------------------------| |
A|o|--------------------------------------------------------|o| x2
E| |-6-6-6-8-x-8~--9-9-9-8-x-8~--6-6-6-8-x-8~--8--11--6--4--| |

B|------------------------------------------------------------|
G|------------------------------------------------------------|
D|------------------------------------------------------------|
A|------------------------------------------------------------|
E|-6-6-6-8-x-8~--9-9-9-8-x-8~--6-6-6-8-x-8~--9-9-9-9-11-11-11~|

B| |-----------------------------------------|
G|o|-----------------------------------------|
D| |-----------------------------------------|
A|o|-----------------------------------------|
E| |-8-8-8-8-8-8-8-8-11-11-11-11-11-11-11-11-|

B|------------------------------| |
G|------------------------------|o|
D|------------------------------| | x3
A|------------------------------|o|
E|-9-9-9-9-9-9-9-9-8--11--6--4--| |

B| |-------------------------------| |
G|o|-------------------------------|o|
D| |-------------------------------| | x2
A|o|-------------------------------|o|
E| |-8-8--8-11-11--11-9-9--9-6~-8~-| |

B|---------------------------------|
G|---------------------------------|
D|---------------------------------|
A|---------------------------------|
E|-6-6-6-6-6-6-6-6-8-8-8-8-8-8-8-8-|

B|-------------------------------------------------|
G|-------------------------------------------------|
D|-------------------------------------------------|
A|-------------------------------------------------|
E|-11-11-11-11-11-11-11-11-11-11-11-11-11-11-11-11-|

B|---------------------------------------------------------------|
G|---------------------------------------------------------------|
D|---------------------------------------------------------------|
A|---------------------------------------------------------------|
E|-6-6-6-6-6-6-6-6-8-8-8-8-8-8-8-8-8-8-8-8-8-8-8-8--8--11--6--4--|

B| |-----------------------------------------|
G|o|-----------------------------------------|
D| |-----------------------------------------|
A|o|-----------------------------------------|
E| |-8-8-8-8-8-8-8-8-11-11-11-11-11-11-11-11-|

B|------------------------------| |
G|------------------------------|o|
D|------------------------------| | x3
A|------------------------------|o|
E|-9-9-9-9-9-9-9-9-8--11--6--4--| |

B| |--------------------------| |
G|o|--------------------------|o|
D| |--------------------------| | x2
A|o|--------------------------|o|
E| |-8-8--11-11--9-9--9-6~-8~-| |

B| |-------------------------------| |
G|o|-------------------------------|o|
D| |-------------------------------| |
A|o|-------------------------------|o| x2
E| |-8-8--8-11-11--11-9-9--9-6~-8~-| |

Please Rate and Comment!
Thanks

            
            
Suggest correction
Creating personal tab
Creating personal tab
You can edit any tab online and save it as your Personal.

You can edit, replace or remove any tab part or add personal notes – all changes will be seen only by you.

Personal tabs can be accessed anytime from any device, even offline.
Learn more »
comments
print report bad tab
7 comments total. Showing first comments.
0 reply
RazzleMCR1 50 Sep 08, 2009 05:42 PM

mind tabbing it 4 a 4string?

+3 reply
alexw1020 51 Oct 25, 2009 10:27 AM

Just subtract 5 from the number and put it on the E string. For example, the first line of this tab would be:

G| |--------------------------------------------------------| |
D| |-----------------------------------------------------1--| |
A| |--------------------------------------------------------| |
E| |-1-1-1-3-x-3~--4-4-4-3-x-3~--1-1-1-3-x-3~--3--6---1-----| |

The reason there's a 1 on the D is because you don't have a low Eb in standard so you have to play a high one.

0 reply
tyler.siders 30 Oct 28, 2009 01:36 PM

are you gonna tab the full awake album if so wen??????

guest
You may want to rate the tab now too:
select rating
Wanna post a correction for this tab? Suggest correction