Oops, an error
Loading. Please wait.

Monster Tab

version 1
version 1

Whole song

Video

by Skillet
103,996 views 39 this week
4 commentsread comments
1 2 3 4 5
x 15
add to favorites
launch autoscroll
font size
0
reset
how to read this tab
guitar tuner
backing track
0:00
0:00
×
Best way to learn
"Monster"
Autoscroll
slow
fast
+/-
esc
set tempo
stop
Gtr 1 (B F# B E G# C#) - 'Ben Kasica'
Gtr 2 (B F# B E G# C#) - 'Korey Cooper'

(Q=135)
(4/4)
(Gtr 1)
   E E E E E E Q    Q  E E E E Q    Q  E E E E Q    Q   Q  Q  Q
e|----------------|---------------|---------------|---------------|
B|----------------|---------------|---------------|---------------|
G|----------------|---------------|---------------|---------------|
D|-7-7-7-0-x-0-0--|-8--8-0-x-0-0--|-5--5-0-x-0-0--|-8--10--5--3---|
A|-7-7-7-0-x-0-0--|-8--8-0-x-0-0--|-5--5-0-x-0-0--|-8--10--5--3---|
E|-7-7-7-0-x-0-0--|-8--8-0-x-0-0--|-5--5-0-x-0-0--|-8--10--5--3---|

(Gtrs 1, 2)
     E E E E E E Q    Q  E E E E Q    Q  E E E E Q    Q   Q  Q  Q    (6x)
e|-----------------|---------------|---------------|----------------|
B|o----------------|---------------|---------------|---------------o|
G|-----------------|---------------|---------------|----------------|
D|--7-7-7-0-x-0-0--|-8--8-0-x-0-0--|-5--5-0-x-0-0--|-8--10--5--3----|
A|o-7-7-7-0-x-0-0--|-8--8-0-x-0-0--|-5--5-0-x-0-0--|-8--10--5--3---o|
E|--7-7-7-0-x-0-0--|-8--8-0-x-0-0--|-5--5-0-x-0-0--|-8--10--5--3----|

   E E E E E E Q    Q  E E E E Q    Q  E E E E Q
e|----------------|---------------|---------------|
B|----------------|---------------|---------------|
G|----------------|---------------|---------------|
D|-7-7-7-0-x-0-0--|-8--8-0-x-0-0--|-5--5-0-x-0-0--|
A|-7-7-7-0-x-0-0--|-8--8-0-x-0-0--|-5--5-0-x-0-0--|
E|-7-7-7-0-x-0-0--|-8--8-0-x-0-0--|-5--5-0-x-0-0--|

   E E E E E E E E    E  E  E  E  E  E  E  E
e|-----------------|-------------------------|
B|-----------------|-------------------------|
G|-----------------|-------------------------|
D|-8-8-8-8-8-8-8-8-|-10-10-10-10-10-10-10-10-|
A|-8-8-8-8-8-8-8-8-|-10-10-10-10-10-10-10-10-|
E|-8-8-8-8-8-8-8-8-|-10-10-10-10-10-10-10-10-|

     E E E E E E E E   E E E E E E E E   E E E E E E E E   E E E E E E E E
e|------------------|-----------------|-----------------|-------------------|
B|o-----------------|-----------------|-----------------|------------------o|
G|------------------|-3-3-3-3-3-3-3-3-|-----------------|-3-3-5-5-----------|
D|--0-0-0-0-0-0-0-0-|-3-3-3-3-3-3-3-3-|-0-0-0-0-0-0-0-0-|-3-3-5-5-5-5-3-3---|
A|o-0-0-0-0-0-0-0-0-|-1-1-1-1-1-1-1-1-|-0-0-0-0-0-0-0-0-|-1-1-3-3-5-5-3-3--o|
E|--0-0-0-0-0-0-0-0-|-----------------|-0-0-0-0-0-0-0-0-|---------5-5-3-3---|

   E E E E E E E E   E E E E E E E E   E E E E E E E E   E E E E E E E E
e|-----------------|-----------------|-----------------|-----------------|
B|-----------------|-----------------|-----------------|-----------------|
G|-----------------|-3-3-5-5---------|-----------------|-3-3-5-5---------|
D|-0-0-0-0-0-0-0-0-|-3-3-5-5-5-5-3-3-|-0-0-0-0-0-0-0-0-|-3-3-5-5-5-5-3-3-|
A|-0-0-0-0-0-0-0-0-|-1-1-3-3-5-5-3-3-|-0-0-0-0-0-0-0-0-|-1-1-3-3-5-5-3-3-|
E|-0-0-0-0-0-0-0-0-|---------5-5-3-3-|-0-0-0-0-0-0-0-0-|---------5-5-3-3-|

     E E E E E E Q    Q  E E E E Q    Q  E E E E Q    Q   Q  Q  Q  (3x)
e|-----------------|---------------|---------------|--------------|
B|o----------------|---------------|---------------|-------------o|
G|-----------------|---------------|---------------|--------------|
D|--7-7-7-0-x-0-0--|-8--8-0-x-0-0--|-5--5-0-x-0-0--|-8--10--5--3--|
A|o-7-7-7-0-x-0-0--|-8--8-0-x-0-0--|-5--5-0-x-0-0--|-8--10--5--3-o|
E|--7-7-7-0-x-0-0--|-8--8-0-x-0-0--|-5--5-0-x-0-0--|-8--10--5--3--|

   E E E E E E Q    Q  E E E E Q    Q  E E E E Q
e|----------------|---------------|---------------|
B|----------------|---------------|---------------|
G|----------------|---------------|---------------|
D|-7-7-7-0-x-0-0--|-8--8-0-x-0-0--|-5--5-0-x-0-0--|
A|-7-7-7-0-x-0-0--|-8--8-0-x-0-0--|-5--5-0-x-0-0--|
E|-7-7-7-0-x-0-0--|-8--8-0-x-0-0--|-5--5-0-x-0-0--|

   E E E E E E E E    E  E  E  E  E  E  E  E
e|-----------------|-------------------------|
B|-----------------|-------------------------|
G|-----------------|-------------------------|
D|-8-8-8-8-8-8-8-8-|-10-10-10-10-10-10-10-10-|
A|-8-8-8-8-8-8-8-8-|-10-10-10-10-10-10-10-10-|
E|-8-8-8-8-8-8-8-8-|-10-10-10-10-10-10-10-10-|

     E E E E E E E E   E E E E E E E E   E E E E E E E E   E E E E E E E E   (4x)
e|------------------|-----------------|-----------------|-------------------|
B|o-----------------|-----------------|-----------------|------------------o|
G|------------------|-3-3-3-3-3-3-3-3-|-----------------|-3-3-5-5-----------|
D|--0-0-0-0-0-0-0-0-|-3-3-3-3-3-3-3-3-|-0-0-0-0-0-0-0-0-|-3-3-5-5-5-5-3-3---|
A|o-0-0-0-0-0-0-0-0-|-1-1-1-1-1-1-1-1-|-0-0-0-0-0-0-0-0-|-1-1-3-3-5-5-3-3--o|
E|--0-0-0-0-0-0-0-0-|-----------------|-0-0-0-0-0-0-0-0-|---------5-5-3-3---|

   E E E E E E E E   E E E E E E E E   E E E E E E E E   E E E E E E E E
e|-----------------|-----------------|-----------------|-----------------|
B|-----------------|-----------------|-----------------|-----------------|
G|-----------------|-3-3-5-5---------|-----------------|-3-3-5-5---------|
D|-0-0-0-0-0-0-0-0-|-3-3-5-5-5-5-3-3-|-0-0-0-0-0-0-0-0-|-3-3-5-5-5-5-3-3-|
A|-0-0-0-0-0-0-0-0-|-1-1-3-3-5-5-3-3-|-0-0-0-0-0-0-0-0-|-1-1-3-3-5-5-3-3-|
E|-0-0-0-0-0-0-0-0-|---------5-5-3-3-|-0-0-0-0-0-0-0-0-|---------5-5-3-3-|

     E E E E E E E E   E E E E E E E E   E E E E E E E E   E E E E E E E E
e|------------------|-----------------|-----------------|-----------------|
B|o-----------------|-----------------|-----------------|----------------o|
G|--5-5-5-5-5-5-5-5-|-7-7-7-7-7-7-7-7-|-3-3-3-3-3-3-3-3-|-2-2-2-2-2-2-2-2-|
D|--5-5-5-5-5-5-5-5-|-7-7-7-7-7-7-7-7-|-3-3-3-3-3-3-3-3-|-2-2-2-2-2-2-2-2-|
A|o-3-3-3-3-3-3-3-3-|-5-5-5-5-5-5-5-5-|-1-1-1-1-1-1-1-1-|-0-0-0-0-0-0-0-0o|
E|------------------|-----------------|-----------------|-----------------|

(Gtr 1)
   E E E E E E E E   E E E E E E E E   E E E E E E E E    W
e|-----------------|-----------------|-----------------|-------|
B|-----------------|-----------------|-----------------|-------|
G|-----------------|-3-3-3-3-3-3-3-3-|-----------------|-------|
D|-0-0-0-0-0-0-0-0-|-3-3-3-3-3-3-3-3-|-0-0-0-0-0-0-0-0-|-------|
A|-0-0-0-0-0-0-0-0-|-1-1-1-1-1-1-1-1-|-0-0-0-0-0-0-0-0-|-------|
E|-0-0-0-0-0-0-0-0-|-----------------|-0-0-0-0-0-0-0-0-|-------|

(Gtrs 1, 2)
     E E E E E E E E   E E E E E E E E   E E E E E E E E   E E E E E E E E
e|------------------|-----------------|-----------------|-----------------|
B|o-----------------|-----------------|-----------------|----------------o|
G|------------------|-3-3-3-3-3-3-3-3-|-----------------|-3-3-5-5---------|
D|--0-0-0-0-0-0-0-0-|-3-3-3-3-3-3-3-3-|-0-0-0-0-0-0-0-0-|-3-3-5-5-5-5-3-3-|
A|o-0-0-0-0-0-0-0-0-|-1-1-1-1-1-1-1-1-|-0-0-0-0-0-0-0-0-|-1-1-3-3-5-5-3-3o|
E|--0-0-0-0-0-0-0-0-|-----------------|-0-0-0-0-0-0-0-0-|---------5-5-3-3-|

   E E Q  E E Q    E E E E E E E E   E E Q  E E Q    E E E E E E E E
e|---------------|-----------------|---------------|-----------------|
B|---------------|-----------------|---------------|-----------------|
G|---------------|-3-3-5-5---------|---------------|-3-3-5-5---------|
D|-0-0----0-0----|-3-3-5-5-5-5-3-3-|-0-0----0-0----|-3-3-5-5-5-5-3-3-|
A|-0-0----0-0----|-1-1-3-3-5-5-3-3-|-0-0----0-0----|-1-1-3-3-5-5-3-3-|
E|-0-0----0-0----|---------5-5-3-3-|-0-0----0-0----|---------5-5-3-3-|

   E E E E E E E E   E E E E E E E E   E E E E E E E E   E E E E Q  Q
e|-----------------|-----------------|-----------------|---------------|
B|-----------------|-----------------|-----------------|---------------|
G|-----------------|-3-3-5-5---------|-----------------|-3-3-5-5-------|
D|-0-0-0-0-0-0-0-0-|-3-3-5-5-5-5-3-3-|-0-0-0-0-0-0-0-0-|-3-3-5-5-5--3--|
A|-0-0-0-0-0-0-0-0-|-1-1-3-3-5-5-3-3-|-0-0-0-0-0-0-0-0-|-1-1-3-3-5--3--|
E|-0-0-0-0-0-0-0-0-|---------5-5-3-3-|-0-0-0-0-0-0-0-0-|---------5--3--|


************************************

| x  Dead note


************************************
Suggest correction
comments
print report bad tab
4 comments total. Showing first comments.
0 reply
sumrandomhobo 534 May 27, 2009 01:51 PM

Woops also I noticed the verses should start on the 5th fret not the 7th.

0 reply
xcrunner1 81 Jun 05, 2009 11:53 AM

this tab is awful & utterly wrong on the easiest power chords alive

0 reply
GuitarWiz101 58 Aug 11, 2009 06:43 PM

Absolutely wrong, yo all of these tabs are wrong! there is a tab later tomorrow or 13th that will be uploaded and for sure it is right!!! perfecto!

guest
You may want to rate the tab now too:
select rating
Wanna post a correction for this tab? Suggest correction