Oops, an error
Loading. Please wait.
We have an official Monster tab made by UG professional guitarists. Check out the tab »
×

Monster tab

version 3
version 3

Whole song

Video

by Skillet
13,958 views 6 this week
2 commentsread comments
1 2 3 4 5
x 7
add to favorites
×
Save as Personal and add changes to this tab that will be seen only by you. Learn more ›
×
You can save this tab as Personal to edit and correct it or add notes. All changes will be seen only by you. Learn more »
launch autoscroll
font size
0
reset
how to read this tab
guitar tuner
backing track
0:00
0:00
edit
Autoscroll
slow
fast
+/-
esc
set tempo
stop
Song: Monster (Live)
Artist: Skillet
Tabbed From: http://www.youtube.com/watch?v=qCU0AhBj2BY

Tuning: Drop B

Well, heres my tab for Monster. This is a tab of the live version on youtube, the link 
above. It should all be right, but if you find something that isn't, please comment... 
please rate. =] Oh, and by the way all the "10's" are tens, not one-o's.

Key:
Dead Note   x
Slide       s
Hammer On   h
Pull Off    p

Intro/Verse 1 (1:01)
C#|-------------|------------|------------|----====---|
G#|-------------|------------|------------|----=x5=---|
 E|-------------|------------|------------|----====---|
 B|--5-5-0-xx-0-|-8-8-0-xx-0-|-5-5-0-xx-0-|-7-10-5-3--|
F#|--5-5-0-xx-0-|-8-8-0-xx-0-|-5-5-0-xx-0-|-7-10-5-3--|
 B|--5-5-0-xx-0-|-8-8-0-xx-0-|-5-5-0-xx-0-|-7-10-5-3--|

C#|-------------|------------|------------|----------------------------|
G#|-------------|------------|------------|----------------------------|
 E|-------------|------------|------------|----------------------------|
 B|--5-5-0-xx-0-|-8-8-0-xx-0-|-5-5-0-xx-0-|-88888888-1010101010101010--|
F#|--5-5-0-xx-0-|-8-8-0-xx-0-|-5-5-0-xx-0-|-88888888-1010101010101010--|
 B|--5-5-0-xx-0-|-8-8-0-xx-0-|-5-5-0-xx-0-|-88888888-1010101010101010--|

Chorus (1:46)
C#|-----------|----------|----------|--------====----|
G#|-----------|----------|----------|--------=x3=----|
 E|-----------|----------|----------|--------====----|
 B|--00000000-|-33333333-|-88888888-|-77-1010-55-33--|
F#|--00000000-|-33333333-|-88888888-|-77-1010-55-33--|
 B|--00000000-|-33333333-|-88888888-|-77-1010-55-33--|

C#|------------|------====---|
G#|------------|------=x2=---|
 E|------------|------====---|
 B|--0000-3333-|-8888-55-77--|
F#|--0000-3333-|-8888-55-77--|
 B|--0000-3333-|-8888-55-77--|

Post-chorus/Verse 2 (2:07)
C#|-------------|------------|------------|----====---|
G#|-------------|------------|------------|----=x2=---|
 E|-------------|------------|------------|----====---|
 B|--5-5-0-xx-0-|-8-8-0-xx-0-|-5-5-0-xx-0-|-7-10-5-3--|
F#|--5-5-0-xx-0-|-8-8-0-xx-0-|-5-5-0-xx-0-|-7-10-5-3--|
 B|--5-5-0-xx-0-|-8-8-0-xx-0-|-5-5-0-xx-0-|-7-10-5-3--|

C#|-------------|------------|------------|----------------------------|
G#|-------------|------------|------------|----------------------------|
 E|-------------|------------|------------|----------------------------|
 B|--5-5-0-xx-0-|-8-8-0-xx-0-|-5-5-0-xx-0-|-88888888-1010101010101010--|
F#|--5-5-0-xx-0-|-8-8-0-xx-0-|-5-5-0-xx-0-|-88888888-1010101010101010--|
 B|--5-5-0-xx-0-|-8-8-0-xx-0-|-5-5-0-xx-0-|-88888888-1010101010101010--|

Chorus (2:30)
C#|-----------|----------|----------|--------====----|
G#|-----------|----------|----------|--------=x3=----|
 E|-----------|----------|----------|--------====----|
 B|--00000000-|-33333333-|-88888888-|-77-1010-55-33--|
F#|--00000000-|-33333333-|-88888888-|-77-1010-55-33--|
 B|--00000000-|-33333333-|-88888888-|-77-1010-55-33--|

C#|------------|------====---|
G#|------------|------=x2=---|
 E|------------|------====---|
 B|--0000-3333-|-8888-55-77--|
F#|--0000-3333-|-8888-55-77--|
 B|--0000-3333-|-8888-55-77--|

Bridge (2:58)
C#|-----------|----------|----------|-----------|
G#|-----------|----------|----------|-----------|
 E|-----------|----------|-55555555-|-55555555--|
 B|--55555555-|-00000000-|-55555555-|-55555555--|
F#|--55555555-|-00000000-|-33333333-|-33333333--|
 B|--55555555-|-00000000-|----------|-----------|

C#|-----------|----------|----------|----------------|
G#|-----------|----------|----------|----------------|
 E|-----------|----------|----------|----------------|
 B|--55555555-|-00000000-|-77777777-|-77-1010-55-33--|
F#|--55555555-|-00000000-|-77777777-|-77-1010-55-33--|
 B|--55555555-|-00000000-|-77777777-|-77-1010-55-33--|

Chorus (3:13)
C#|-----------|----------|-------------------|
G#|-----------|----------|-------------------|
 E|-----------|----------|-------------------|
 B|--00000000-|-33333333-|-1010101010101010--|
F#|--00000000-|-33333333-|-1010101010101010--|
 B|--00000000-|-33333333-|-1010101010101010--|

Chorus (3:20)
C#|-----------|----------|----------|--------====----|
G#|-----------|----------|----------|--------=x3=----|
 E|-----------|----------|----------|--------====----|
 B|--00000000-|-33333333-|-88888888-|-77-1010-55-33--|
F#|--00000000-|-33333333-|-88888888-|-77-1010-55-33--|
 B|--00000000-|-33333333-|-88888888-|-77-1010-55-33--|

C#|---------|------====---|
G#|---------|------=x2=---|
 E|---------|------====---|
 B|--00--00-|-8888-55-77--|
F#|--00--00-|-8888-55-77--|
 B|--00--00-|-8888-55-77--|

C#|------------|------====---|
G#|------------|------=x2=---|
 E|------------|------====---|
 B|--0000-3333-|-8888-55-77--|
F#|--0000-3333-|-8888-55-77--|
 B|--0000-3333-|-8888-55-77--|

            
            
Suggest correction
Creating personal tab
Creating personal tab
You can edit any tab online and save it as your Personal.

You can edit, replace or remove any tab part or add personal notes – all changes will be seen only by you.

Personal tabs can be accessed anytime from any device, even offline.
Learn more »
comments
print report bad tab
2 comments total.
0 reply
sumrandomhobo 534 Aug 04, 2009 03:36 PM

Why the terrible rating? Arrrgghhh lol

0 reply
trebor00222 10 Jan 06, 2010 05:34 AM

Again, Nice 1.

guest
You may want to rate the tab now too:
select rating
Wanna post a correction for this tab? Suggest correction