Oops, an error
Loading. Please wait.
We have an official Monster tab made by UG professional guitarists. Check out the tab »
×

Monster tab

version 4
version 4

Whole song

Video

by Skillet
11,301 views 15 this week
4 commentsread comments
1 2 3 4 5
x 6
add to favorites
×
Save as Personal and add changes to this tab that will be seen only by you. Learn more ›
×
You can save this tab as Personal to edit and correct it or add notes. All changes will be seen only by you. Learn more »
launch autoscroll
font size
0
reset
how to read this tab
guitar tuner
backing track
0:00
0:00
edit
Autoscroll
slow
fast
+/-
esc
set tempo
stop
Author
Artist: Skillet
Album: Awake
Song: Monster

Tuning: Drop D

Verse 1

|----------------|---------------|---------------|---------------|
|----------------|---------------|---------------|---------------|
|----------------|---------------|---------------|---------------|
|-5-5-5-7-x-7-7--|-8--8-7-x-7-7--|-5--5-7-x-7-7--|-7--10--5--3---|
|-5-5-5-7-x-7-7--|-8--8-7-x-7-7--|-5--5-7-x-7-7--|-7--10--5--3---|
|-5-5-5-7-x-7-7--|-8--8-7-x-7-7--|-5--5-7-x-7-7--|-7--10--5--3---|


    Gtrs I, II
								  6x
||----------------|---------------|---------------|---------------||
||----------------|---------------|---------------|---------------||
||----------------|---------------|---------------|---------------||
||-5-5-5-7-x-7-7--|-8--8-7-x-7-7--|-5--5-7-x-7-7--|-7--10--5--3---||
||-5-5-5-7-x-7-7--|-8--8-7-x-7-7--|-5--5-7-x-7-7--|-7--10--5--3---||
||-5-5-5-7-x-7-7--|-8--8-7-x-7-7--|-5--5-7-x-7-7--|-7--10--5--3---||


|----------------|---------------|---------------|
|----------------|---------------|---------------|
|----------------|---------------|---------------|
|-5-5-5-7-x-7-7--|-8--8-7-x-7-7--|-5--5-7-x-7-7--|
|-5-5-5-7-x-7-7--|-8--8-7-x-7-7--|-5--5-7-x-7-7--|
|-5-5-5-7-x-7-7--|-8--8-7-x-7-7--|-5--5-7-x-7-7--|


|-----------------|-------------------------|
|-----------------|-------------------------|
|-----------------|-------------------------|
|-8-8-8-8-8-8-8-8-|-10-10-10-10-10-10-10-10-|
|-8-8-8-8-8-8-8-8-|-10-10-10-10-10-10-10-10-|
|-8-8-8-8-8-8-8-8-|-10-10-10-10-10-10-10-10-|

Chorus

||------------------|-----------------|-----------------|-----------------|
||------------------|-----------------|-----------------|-----------------|
||------------------|-3-3-3-3-3-3-3-3-|-----------------|-3-3-5-5---------|
||--0-0-0-0-0-0-0-0-|-3-3-3-3-3-3-3-3-|-0-0-0-0-0-0-0-0-|-3-3-5-5-5-5-3-3-|
||o-0-0-0-0-0-0-0-0-|-1-1-1-1-1-1-1-1-|-0-0-0-0-0-0-0-0-|-1-1-3-3-5-5-3-3-|
||--0-0-0-0-0-0-0-0-|-----------------|-0-0-0-0-0-0-0-0-|---------5-5-3-3-|


|-----------------|-----------------|-----------------|-----------------|
|-----------------|-----------------|-----------------|-----------------|
|-----------------|-3-3-5-5---------|-----------------|-3-3-5-5---------|
|-0-0-0-0-0-0-0-0-|-3-3-5-5-5-5-3-3-|-0-0-0-0-0-0-0-0-|-3-3-5-5-5-5-3-3-|
|-0-0-0-0-0-0-0-0-|-1-1-3-3-5-5-3-3-|-0-0-0-0-0-0-0-0-|-1-1-3-3-5-5-3-3-|
|-0-0-0-0-0-0-0-0-|---------5-5-3-3-|-0-0-0-0-0-0-0-0-|---------5-5-3-3-|

Verse 2
								  3x
||----------------|---------------|---------------|---------------||
||----------------|---------------|---------------|---------------||
||----------------|---------------|---------------|---------------||
||-5-5-5-7-x-7-7--|-8--8-7-x-7-7--|-5--5-7-x-7-7--|-7--10--5--3---||
||-5-5-5-7-x-7-7--|-8--8-7-x-7-7--|-5--5-7-x-7-7--|-7--10--5--3---||
||-5-5-5-7-x-7-7--|-8--8-7-x-7-7--|-5--5-7-x-7-7--|-7--10--5--3---||



|----------------|---------------|---------------|
|----------------|---------------|---------------|
|----------------|---------------|---------------|
|-5-5-5-7-x-7-7--|-8--8-7-x-7-7--|-5--5-7-x-7-7--|
|-5-5-5-7-x-7-7--|-8--8-7-x-7-7--|-5--5-7-x-7-7--|
|-5-5-5-7-x-7-7--|-8--8-7-x-7-7--|-5--5-7-x-7-7--|




|-----------------|-------------------------|
|-----------------|-------------------------|
|-----------------|-------------------------|
|-8-8-8-8-8-8-8-8-|-10-10-10-10-10-10-10-10-|
|-8-8-8-8-8-8-8-8-|-10-10-10-10-10-10-10-10-|
|-8-8-8-8-8-8-8-8-|-10-10-10-10-10-10-10-10-|

Chorus 2
   									    4x
||------------------|-----------------|-----------------|-----------------|
||------------------|-----------------|-----------------|-----------------|
||------------------|-3-3-3-3-3-3-3-3-|-----------------|-3-3-5-5---------|
||--0-0-0-0-0-0-0-0-|-3-3-3-3-3-3-3-3-|-0-0-0-0-0-0-0-0-|-3-3-5-5-5-5-3-3-|
||o-0-0-0-0-0-0-0-0-|-1-1-1-1-1-1-1-1-|-0-0-0-0-0-0-0-0-|-1-1-3-3-5-5-3-3-|
||--0-0-0-0-0-0-0-0-|-----------------|-0-0-0-0-0-0-0-0-|---------5-5-3-3-|



|-----------------|-----------------|-----------------|-----------------|
|-----------------|-----------------|-----------------|-----------------|
|-----------------|-3-3-5-5---------|-----------------|-3-3-5-5---------|
|-0-0-0-0-0-0-0-0-|-3-3-5-5-5-5-3-3-|-0-0-0-0-0-0-0-0-|-3-3-5-5-5-5-3-3-|
|-0-0-0-0-0-0-0-0-|-1-1-3-3-5-5-3-3-|-0-0-0-0-0-0-0-0-|-1-1-3-3-5-5-3-3-|
|-0-0-0-0-0-0-0-0-|---------5-5-3-3-|-0-0-0-0-0-0-0-0-|---------5-5-3-3-|

Bridge

||------------------|-----------------|-----------------|-----------------||
||o-----------------|-----------------|-----------------|----------------o||
||--5-5-5-5-5-5-5-5-|-7-7-7-7-7-7-7-7-|-3-3-3-3-3-3-3-3-|-2-2-2-2-2-2-2-2-||
||--5-5-5-5-5-5-5-5-|-7-7-7-7-7-7-7-7-|-3-3-3-3-3-3-3-3-|-2-2-2-2-2-2-2-2-||
||o-3-3-3-3-3-3-3-3-|-5-5-5-5-5-5-5-5-|-1-1-1-1-1-1-1-1-|-0-0-0-0-0-0-0-0o||
||------------------|-----------------|-----------------|-----------------||


  Gtr I

|-----------------|-----------------|-----------------|-------|
|-----------------|-----------------|-----------------|-------|
|-----------------|-3-3-3-3-3-3-3-3-|-----------------|-------|
|-0-0-0-0-0-0-0-0-|-3-3-3-3-3-3-3-3-|-0-0-0-0-0-0-0-0-|-------|
|-0-0-0-0-0-0-0-0-|-1-1-1-1-1-1-1-1-|-0-0-0-0-0-0-0-0-|-------|
|-0-0-0-0-0-0-0-0-|-----------------|-0-0-0-0-0-0-0-0-|-------|

Chorus 3
    Gtrs I, II

||------------------|-----------------|-----------------|-----------------||
||o-----------------|-----------------|-----------------|----------------o||
||------------------|-3-3-3-3-3-3-3-3-|-----------------|-3-3-5-5---------||
||--0-0-0-0-0-0-0-0-|-3-3-3-3-3-3-3-3-|-0-0-0-0-0-0-0-0-|-3-3-5-5-5-5-3-3-||
||o-0-0-0-0-0-0-0-0-|-1-1-1-1-1-1-1-1-|-0-0-0-0-0-0-0-0-|-1-1-3-3-5-5-3-3o||
||--0-0-0-0-0-0-0-0-|-----------------|-0-0-0-0-0-0-0-0-|---------5-5-3-3-||



|---------------|-----------------|---------------|-----------------|
|---------------|-----------------|---------------|-----------------|
|---------------|-3-3-5-5---------|---------------|-3-3-5-5---------|
|-0-0----0-0----|-3-3-5-5-5-5-3-3-|-0-0----0-0----|-3-3-5-5-5-5-3-3-|
|-0-0----0-0----|-1-1-3-3-5-5-3-3-|-0-0----0-0----|-1-1-3-3-5-5-3-3-|
|-0-0----0-0----|---------5-5-3-3-|-0-0----0-0----|---------5-5-3-3-|



|-----------------|-----------------|-----------------|---------------|
|-----------------|-----------------|-----------------|---------------|
|-----------------|-3-3-5-5---------|-----------------|-3-3-5-5-------|
|-0-0-0-0-0-0-0-0-|-3-3-5-5-5-5-3-3-|-0-0-0-0-0-0-0-0-|-3-3-5-5-5--3--|
|-0-0-0-0-0-0-0-0-|-1-1-3-3-5-5-3-3-|-0-0-0-0-0-0-0-0-|-1-1-3-3-5--3--|
|-0-0-0-0-0-0-0-0-|---------5-5-3-3-|-0-0-0-0-0-0-0-0-|---------5--3--|


Tablature Legend
----------------
 h   - hammer-on
 p   - pull-off
 b   - bend
 pb  - pre-bend
 r   - bend release (if no number after the r, then release immediately)
 /\  - slide into or out of (from/to "nowhere")
 s   - legato slide
 S   - shift slide
 - natural harmonic
[n]  - artificial harmonic
n(n) - tapped harmonic
 ~   - vibrato
 tr  - trill
 T   - tap
 TP  - trem. picking
 PM  - palm muting
\n/  - tremolo bar dip; n = amount to dip
 \n  - tremolo bar down
 n/  - tremolo bar up
/n\  - tremolo bar inverted dip
 =   - hold bend; also acts as connecting device for hammers/pulls
 <> - volume swell (louder/softer)
 x   - on rhythm slash represents muted slash
 o   - on rhythm slash represents single note slash


            
            
Suggest correction
Creating personal tab
Creating personal tab
You can edit any tab online and save it as your Personal.

You can edit, replace or remove any tab part or add personal notes – all changes will be seen only by you.

Personal tabs can be accessed anytime from any device, even offline.
Learn more »
comments
print report bad tab
4 comments total. Showing first comments.
0 reply
rockguitarist92 20 Jul 29, 2009 11:19 AM

I dont have any problems with this tab.
I gave it 5*.
Someone was probably pissed because THEY
played it in the wrong tuning.
The tuning should be drop B though. not Drop D.
But great tab man.

0 reply
skilletman 31 Aug 04, 2009 03:32 PM

actually its in drop c

0 reply
Mahtari 72 Jan 26, 2011 02:52 PM

And the tab is just... wrong.

guest
You may want to rate the tab now too:
select rating
Wanna post a correction for this tab? Suggest correction