Oops, an error
Loading. Please wait.
9,576 views 3 this week
3 commentsread comments
1 2 3 4 5
x 3
add to favorites
×
Save as Personal and add changes to this tab that will be seen only by you. Learn more ›
×
You can save this tab as Personal to edit and correct it or add notes. All changes will be seen only by you. Learn more »
launch autoscroll
font size
0
reset
guitar tuner
backing track
0:00
0:00
edit
Autoscroll
slow
fast
+/-
esc
set tempo
stop
Author
Difficulty
This is the tab to Monster by Skilet off their 2009 record. John Cooper switches between 
and 5 strings, so I'll tab both. The 5 is tuned standard, the 4 is in drop C.

5 string:

Verse:
G------------------------------------------------------|
D------------------------------------------------------|
A--------------------------------------------1---------|
E--1-1-1--------4-4-4---------1-1-1--------3---1-------|
B--------1--x-1--------1--x-1-------1--x-1-------4-----|

Fill: ("Save me from this; Make it end")
G--------------------------------|
D--------------------------------|
A--------------------------------|
E---4--4--4--4--6--6--6--6-------|
B--------------------------------|

Chorus:
G-----------------------------------------------------------|
D-----------------------------------------------------------|
A----------------------------------------------------1------|(2x)
E----------------------------------4-4-4-4-4-4-4-4-3---1----|
B--1-1-1-1-1-1-1-1-4-4-4-4-4-4-4-4-----------------------4--|

G----------------------------------------------------|
D----------------------------------------------------|
A----------------------------------------------------|(2x)
E---------------4-4--4-1/3----------------4-4-4-1/3--|
B-1-1--1-4-4--4-------------1-1--1-4-4--4------------|

Bridge:
G------------------------------------------------------------------|
D------------------------------------------------------------------|
A------------------------------------------------------------------|
E-4-4-4-4-4-4-4-4---------------------------------6-6-6-6-6-6-6-6--|
B-----------------1-1-1-1-1-1-1-1-4-4-4-4-4-4-4-4------------------|

G----------------------------------------------------------|
D----------------------------------------------------------|
A---------------------------------------------------1------|
E-4-4-4-4-4-4-4-4-----------------3-3-3-3-3-3-3-3-3---1----|
B-----------------1-1-1-1-1-1-1-1-----------------------4--|

4 string:

Verse:
F-------------------------------------------------|
C-------------------------------------------------|
G-------------------------------------------3-----|
C-5-5-5-0--x-0-8-8-8-0--x-0--5-5-5-0--x-0-7---5-3-|

Fill:
F-----------------------------|
C-----------------------------|
G-----------------------------|
C-8--8--8--8--10--10--10--10--|

Chorus:
F----------------------------------------------------------|
C----------------------------------------------------------|
G---------------------------------------------------3------|(2x)
C-0-0-0-0-0-0-0-0-3-3-3-3-3-3-3-3-8-8-8-8-8-8-8-8-7---5-3--|

F---------------------------------|
C---------------------------------|
G-----------------------------3---|(2x)
C-0-0--0-3-3--3-8-8--8-7-7--7-----|

Bridge:
F-------------------------------------------------------------------------|
C-------------------------------------------------------------------------|
G-------------------------------------------------------------------------|
C-8-8-8-8-8-8-8-8-0-0-0-0-0-0-0-0-3-3-3-3-3-3-3-3-10-10-10-10-10-10-10-10-|

F
C
G---------------------------------------------------3------|
C-8-8-8-8-8-8-8-8-0-0-0-0-0-0-0-0-7-7-7-7-7-7-7-7-7---5-3--|

Order of Play:

Verse
Fill
Chorus
Verse
Fill
Chorus
Bridge
Chorus
Suggest correction
Creating personal tab
Creating personal tab
You can edit any tab online and save it as your Personal.

You can edit, replace or remove any tab part or add personal notes – all changes will be seen only by you.

Personal tabs can be accessed anytime from any device, even offline.
Learn more »
Give kudos to tab author, rate the tab!
1 2 3 4 5
comments
print report bad tab
3 comments total.
0 reply
MrZEDO 20 Jun 13, 2010 12:31 AM

Why would the notes be different on 5-string and 4-string? I get why the frets are different (duh), but I don't understand why the notes would change.

0 reply
bassbear09 10 Jan 29, 2011 02:36 PM

Thanks for tabbing this for the 5 string. It is a hell of a lot easier than just drop tuning my top 4 strings.

0 reply
Swag Swoop 10 Feb 18, 2013 06:38 AM

the 2nd part of the chorus is
F---------------------------------|
C---------------------------------|
G---------------------------------|(2x)
C-0-0--0-3-3--3-888--5--7---------|

guest
You may want to rate the tab now too:
select rating
Wanna post a correction for this tab? Suggest correction