Oops, an error
Loading. Please wait.
28,197 views 48 this week
4 commentsread comments
1 2 3 4 5
x 14
add to favorites
×
Save as Personal and add changes to this tab that will be seen only by you. Learn more ›
×
You can save this tab as Personal to edit and correct it or add notes. All changes will be seen only by you. Learn more »
launch autoscroll
font size
0
reset
guitar tuner
backing track
0:00
0:00
edit
Autoscroll
slow
fast
+/-
esc
set tempo
stop
[Intro]
F|------------------------------------------|
C|------------------------------------------|
G|------------------------------------------|
C|--5555--00--8888--00--5555--00--7-10-5-3--| (2x)

[Verse 1]
F|------------------------------------------|
C|------------------------------------------|
G|------------------------------------------|
C|--5555--00--8888--00--5555--00--7-10-5-3--| (4x)

[Chorus]
F|------------------------------------------|
C|------------------------------------------|
G|------------------------------------------|
C|--00000000--33333333--88888888--7-10-5-3--| (2x)

(I I feel like a monster)
F|----------------------------------------|
C|----------------------------------------|
G|----------------------------------------|
C|--00-0-33-3-888--5-7--------------------| (2x)

[Verse 2]
F|------------------------------------------|
C|------------------------------------------|
G|------------------------------------------|
C|--5555--00--8888--00--5555--00--7-10-5-3--| (2x)

[Chorus 2]
F|------------------------------------------|
C|------------------------------------------|
G|------------------------------------------|
C|--00000000--33333333--88888888--7-10-5-3--| (3x)

(I I feel like a monster)
F|----------------------------------------|
C|----------------------------------------|
G|----------------------------------------|
C|--00-0-33-3-888--5-7--------------------| (2x)

[Bridge]
F|-----------------------------------------|
C|-----------------------------------------|
G|-----------------------------------------|
C|--55555555--00000000--33333333--88888888-|

F|-----------------------------------------|
C|-----------------------------------------|
G|-----------------------------------------|
C|--55555555--00000000--77777777--10-7-5-3-|

[Chorus 3]
F|------------------------------------------|
C|------------------------------------------|
G|------------------------------------------|
C|--00000000--33333333--88888888--7-10-5-3--| (3x)

(I I feel like a monster)
F|----------------------------------------|
C|----------------------------------------|
G|----------------------------------------|
C|--00-0-33-3-888-5-7---------------------|

            
            
Suggest correction
Creating personal tab
Creating personal tab
You can edit any tab online and save it as your Personal.

You can edit, replace or remove any tab part or add personal notes – all changes will be seen only by you.

Personal tabs can be accessed anytime from any device, even offline.
Learn more »
comments
print report bad tab
4 comments total. Showing first comments.
-2 reply
f-cusson 10 Apr 23, 2011 06:03 PM

Actually the really version of the song is playerd on a 5 stringed bass and goes that way for the intro:
G|------------------------------------------|
D|------------------------------------------|
A|------------------------------------------|
E|--111-------444-------111-------3-6-------|
S|-----1--11-----1--11-----1--11------6-4---|

Still it can be a good version for someone that doesn't have a 5 string, still I would correct your tunning since the bass drop C isn't C G C F (the 4 last strings of the guitar drop C) but C A D G, you only change the last string

0 reply
Swag Swoop 10 Feb 13, 2013 12:16 PM

kewl tab bro

0 reply
Swag Swoop 10 Feb 18, 2013 06:26 AM

the end of the verses is actually
F|------------------------------------------|
C|------------------------------------------|
G|----------------------------------3-------|
C|--5555--00--8888--00--5555--00--7---5--3--|

guest
You may want to rate the tab now too:
select rating
Wanna post a correction for this tab? Suggest correction