Oops, an error
Loading. Please wait.

My Religion tab

version 1
version 1

Whole song

Interactive

by Skillet
4,737 views 9 this week
5 commentsread comments
1 2 3 4 5
x 6
add to favorites
×
Save as Personal and add changes to this tab that will be seen only by you. Learn more ›
×
You can save this tab as Personal to edit and correct it or add notes. All changes will be seen only by you. Learn more »
launch autoscroll
font size
0
reset
how to read this tab
guitar tuner
edit
Autoscroll
slow
fast
+/-
esc
set tempo
stop
My Religion by Skillet (Rise)

Drop D


Intro/Verse 1 x4

D--7-7--7----------7-7--7----------3-3--3----------3-3----------|
A--7-7--7-7-7-5-3--7-7--7-7-7-5-3--3-3--3-6-6-5-3--3-3--6-3-5-7-|
D---------------------------------------------------------------|
G---------------------------------------------------------------|
B---------------------------------------------------------------|
E---------------------------------------------------------------|

Prechorus

D--2-2--2----------2-2--2---------00-----00-----00-----00------|
A--2-2--2-5-3-5-7--2-2--2-5-3-5-7----5-5----5-5----5-5----5-5--|
D------------------------------------7-7----7-7----7-7----7-7--|
G--------------------------------------------------------------|
B--------------------------------------------------------------|
E--------------------------------------------------------------|


D--------------------------------------------------------------|
A----------6-6--5-3-0------------------------------------------|
D--7-7-5-5-----------------------------------------------------|
G--------------------------------------------------------------|
B--------------------------------------------------------------|
E--------------------------------------------------------------|

Chorus x2 (2nd time take out the final 3's so the chorus would be
           7,3,5,3,7,3,5)

D--7-7-7-7-7-7-7-7--7-7-7-7-7-7--3-3-3-3-3-3-3-3--3-3-3-3-3-3--|
A--7-7-7-7-7-7-7-7--7-7-7-7-7-7--3-3-3-3-3-3-3-3--3-3-3-3-3-3--|
D--------------------------------------------------------------|
G--------------------------------------------------------------|
B--------------------------------------------------------------|
E--------------------------------------------------------------|


D--5-5-5-5-5-5-5-5--5-5-5-5-5-5--3-3-3-3-3-3-3-3--3-3-3-3-3-3--|
A--5-5-5-5-5-5-5-5--5-5-5-5-5-5--3-3-3-3-3-3-3-3--3-3-3-3-3-3--|
D--------------------------------------------------------------|
G--------------------------------------------------------------|
B--------------------------------------------------------------|
E--------------------------------------------------------------|

Postchorus/Verse 2 x3

D--7-7--7----------7-7--7----------3-3--3----------3-3----------|
A--7-7--7-7-7-5-3--7-7--7-7-7-5-3--3-3--3-6-6-5-3--3-3--6-3-5-7-|
D---------------------------------------------------------------|
G---------------------------------------------------------------|
B---------------------------------------------------------------|
E---------------------------------------------------------------|

Prechorus

D--2-2--2----------2-2--2---------00-----00-----00-----00------|
A--2-2--2-5-3-5-7--2-2--2-5-3-5-7----5-5----5-5----5-5----5-5--|
D------------------------------------7-7----7-7----7-7----7-7--|
G--------------------------------------------------------------|
B--------------------------------------------------------------|
E--------------------------------------------------------------|


D--------------------------------------------------------------|
A----------6-6--5-3-0------------------------------------------|
D--7-7-5-5-----------------------------------------------------|
G--------------------------------------------------------------|
B--------------------------------------------------------------|
E--------------------------------------------------------------|

Chorus x2 (2nd time take out the final 3's so the chorus would be
           7,3,5,3,7,3,5)

D--7-7-7-7-7-7-7-7--7-7-7-7-7-7--3-3-3-3-3-3-3-3--3-3-3-3-3-3--|
A--7-7-7-7-7-7-7-7--7-7-7-7-7-7--3-3-3-3-3-3-3-3--3-3-3-3-3-3--|
D--------------------------------------------------------------|
G--------------------------------------------------------------|
B--------------------------------------------------------------|
E--------------------------------------------------------------|


D--5-5-5-5-5-5-5-5--5-5-5-5-5-5--3-3-3-3-3-3-3-3--3-3-3-3-3-3--|
A--5-5-5-5-5-5-5-5--5-5-5-5-5-5--3-3-3-3-3-3-3-3--3-3-3-3-3-3--|
D--------------------------------------------------------------|
G--------------------------------------------------------------|
B--------------------------------------------------------------|
E--------------------------------------------------------------|

Bridge

D--7-7--7----------7-7--7----------3-3--3----------3-3-----------|  x2
A--7-7--7-7-7-5-3--7-7--7-7-7-5-3--3-3--3-6-6-5-3--3-3--6-3-5-7--|
D----------------------------------------------------------------|
G----------------------------------------------------------------|
B----------------------------------------------------------------|
E----------------------------------------------------------------|

D--7-7-7-7-7-7-7-7-7-7-7-7-7-7-7-7--3-3-3-3-3-3-3-3-3-3-3-3-3-3-3-3-|
A--7-7-7-7-7-7-7-7-7-7-7-7-7-7-7-7--3-3-3-3-3-3-3-3-3-3-3-3-3-3-3-3-|
D-------------------------------------------------------------------|
G-------------------------------------------------------------------|
B-------------------------------------------------------------------|
E-------------------------------------------------------------------|

D--------------------------------------------------------------|
A----------6-6--5-3-0------------------------------------------|
D--7-7-5-5-----------------------------------------------------|
G--------------------------------------------------------------|
B--------------------------------------------------------------|
E--------------------------------------------------------------|

Chorus x2 (2nd time take out the final 3's so the chorus would be
           7,3,5,3,7,3,5)

D--7-7-7-7-7-7-7-7--7-7-7-7-7-7--3-3-3-3-3-3-3-3--3-3-3-3-3-3--|
A--7-7-7-7-7-7-7-7--7-7-7-7-7-7--3-3-3-3-3-3-3-3--3-3-3-3-3-3--|
D--------------------------------------------------------------|
G--------------------------------------------------------------|
B--------------------------------------------------------------|
E--------------------------------------------------------------|


D--5-5-5-5-5-5-5-5--5-5-5-5-5-5--3-3-3-3-3-3-3-3--3-3-3-3-3-3--|
A--5-5-5-5-5-5-5-5--5-5-5-5-5-5--3-3-3-3-3-3-3-3--3-3-3-3-3-3--|
D--------------------------------------------------------------|
G--------------------------------------------------------------|
B--------------------------------------------------------------|
E--------------------------------------------------------------|

Hope This helps this is my first tab so I'm a little nervous... Rock ON!!!
Suggest correction
Creating personal tab
Creating personal tab
You can edit any tab online and save it as your Personal.

You can edit, replace or remove any tab part or add personal notes – all changes will be seen only by you.

Personal tabs can be accessed anytime from any device, even offline.
Learn more »
comments
print report bad tab
5 comments total. Showing first comments.
0 reply
Panhead 101 31 Jul 19, 2013 07:44 AM

I missed a part in the bridge... after the 16 3's there's this part before the chorus

D--5-5-5-5-5-5-5-5-5-5-5-5-5-5-5-5--3-3-3-3-3-3-3-3-3-3-3-3-3-3-3-3-|
A--5-5-5-5-5-5-5-5-5-5-5-5-5-5-5-5--3-3-3-3-3-3-3-3-3-3-3-3-3-3-3-3-|
D-------------------------------------------------------------------|
G-------------------------------------------------------------------|
B-------------------------------------------------------------------|
E-------------------------------------------------------------------|

0 reply
rasko21 10 Jul 21, 2013 09:59 AM

Why is the tab upside down? Very confusing.

0 reply
Panhead 101 31 Jul 22, 2013 05:36 PM

Sorry... It seemed right to me but I didn't think about that

guest
You may want to rate the tab now too:
select rating
Wanna post a correction for this tab? Suggest correction