Oops, an error
Loading. Please wait.

One Day Too Late Tab

14,791 views 24 this week
1 commentread comment
1 2 3 4 5
accurate
x 4
add to favorites
launch autoscroll
font size
0
reset
how to read this tab
guitar tuner
Autoscroll
slow
fast
+/-
esc
set tempo
stop
Help us to improve Ultimate-Guitar.com Take our survey!
×
Author
Artist: Skillet
Song  : One Day Too Late (Acoustic)

I figured out this tab by watching a youtube video of Skillet playing this
song acoustic. I know that the chords are 100% correct and that the picking
is at least really close if not correct. Here is the link to the video:
http://www.youtube.com/watch?v=DmII2zFy75M
Enjoy and please rate/ comment!

TUNING: Standard

Verse 1:
(GUITAR 1 only)
e|-----0-------0-------0-------0-------0-------0-------0~
B|------0-------0-------0-------0-------0-------0-----3--
G|----2---2--2---2---1----1--1---1----2---2--2---2---2--- Cont'd
D|---2---2--2-----2-2----2--2-----2--4---4--4-----4-0----  below
A|-0-------------------------------4---------------------
E|-----------------0-------------------------------------

e|-----0-------0-------0-------0-------0-------0-------0-------0----|
B|------0-------0-------0-------0-------0-------0-----3-3-------3-3-|
G|----2---2--2---2---1----1--1---1----2---1--1---1---2----2--2---2--|
D|---2---2--2-----2-2----2--2-----2--4---2--2-----2-0----0--0-------|
A|-0-------------------------------4--------------------------------|
E|-----------------0------------------------------------------------|

Pre-chorus:
GUITAR 1: You can pick these chords if you want.
e|-0000-0000-0000-000x-|
B|-0000-3333-0000-333x-|
G|-4422-2222-4422-222x-|\
D|-2244-0000-2244-000x-| \
A|-2244------2244------|  \
E|-xxxx------xxxx------|   \
                            \ Palm mute and use down strokes until
GUITAR 2:                   / until the last chord then build it up.
e|---------------------|   /
B|---------------------|  /
G|------7777------777x-| /
D|-2244-7777-2244-777x-|/
A|-2244-5555-2244-555x-|
E|-xx22-xxxx-0022-xxxx-|

Chorus:
GUITAR 1:
e|-0000-0000-0000-0000-0000-0000-0000-000~-0000-0000-|
B|-0000-0000-0000-3300-0000-0000-0000-333~-0000-3333-|
G|-2222-4444-2211-2244-2222-4444-2211-222~-2222-2222-|
D|-2222-2222-4422-0022-2222-2222-4422-000~-2222-0000-|
A|-0000-2222-4422---22-0000-2222-4422------0000------|
E|-0000-xxxx-xx00---xx-0000-xxxx-xx00------0000------|

GUITAR 2:
e|-0000-0000------0000-0000-0000------000~-0000-0000-|
B|-0000-0000------3300-0000-0000------333~-0000-3333-|
G|-2222-1111------2211-2222-1111------442~-2222-2222-|
D|-2222-2222-4422-0022-2222-2222-4422-440~-2222-0000-|
A|-0000-2222-4422---22-0000-2222-4422-22---0000------|
E|-0000-0000-22xx---00-0000-0000-22xx-xx---0000------|

Verse 2:
GUITAR 1:
e|-0-----0-------0-------0-------0-------0-------0------0-------0----
B|-0------0-------0-------0-------0-------0-------0----3-3-------3-3-
G|-2----2---2--2---2---1----1--1---1----2---1--1---2--2----2--2---2-- Cont'd
D|-2---2---2--2-----2-2----2--2-----2--4---2--2-----20----0--0------- below
A|-0-0-------------------------------4-------------------------------
E|-0-----------------0-----------------------------------------------

e|-----0-------0-------0-------0-------0-------0------0-------0----|
B|------0-------0-------0-------0-------0-------0----3-3-------3-3-|
G|----2---2--2---2---1----1--1---1----2---1--1---1--2----2--2---2--|
D|---2---2--2-----2-2----2--2-----2--4---2--2-----20----0--0-------|
A|-0-------------------------------4-------------------------------|
E|-----------------0-----------------------------------------------|

Guitar 2: (Rest for the 1st line of GUITAR 1 then come in at 2nd line)
e|-------------------------------------------------0-0-0-0-0-0-0-0-|
B|-------------------------------------------------3-3-3-3-3-3-3-3-|
G|-2-2-2-2-2-2-2-2-4-4-4-4-4-4-4-4-----------------2-2-2-2-2-2-2-2-|
D|-2-2-2-2-2-2-2-2-2-2-2-2-2-2-2-2-4-4-4-4-4-4-4-4-0-0-0-0-0-0-0-0-|
A|-0-0-0-0-0-0-0-0-2-2-2-2-2-2-2-2-4-4-4-4-4-4-4-4-----------------|
E|-x-x-x-x-x-x-x-x-x-x-x-x-x-x-x-x-2-2-2-2-2-2-2-2-----------------|
           ^Palm mute all of these with one downsroke^

Pre-chorus:
GUITAR 1: You can pick these chords if you want.
e|-0000-0000-0000-000x-|
B|-0000-3333-0000-333x-|
G|-4422-2222-4422-222x-|\
D|-2244-0000-2244-000x-| \
A|-2244------2244------|  \
E|-xxxx------xxxx------|   \
                            \ Palm mute and use down strokes until
GUITAR 2:                   / until the last chord then build it up.
e|---------------------|   /
B|---------------------|  /
G|------7777------777x-| /
D|-2244-7777-2244-777x-|/
A|-2244-5555-2244-555x-|
E|-xx22-xxxx-0022-xxxx-|

Chorus:
GUITAR 1:
e|-0000-0000-0000-0000-0000-0000-0000-0000-|
B|-0000-0000-0000-3300-0000-0000-0000-3333-|
G|-2222-4444-2211-2244-2222-4444-2211-4422-|
D|-2222-2222-4422-0022-2222-2222-4422-4400-|
A|-0000-2222-4422---22-0000-2222-4422-22---|
E|-0000-xxxx-xx00---xx-0000-xxxx-xx00-xx---|

GUITAR 2:
e|-0000-0000------0000-0000-0000------0000-|
B|-0000-0000------3300-0000-0000------3333-|
G|-2222-1111------2211-2222-1111------4422-|
D|-2222-2222-4422-0022-2222-2222-4422-4400-|
A|-0000-2222-4422---22-0000-2222-4422-22---|
E|-0000-0000-22xx---00-0000-0000-22xx-xx---|

Bridge/ Breakdown:
GUITAR 1:
e|-0000-0000-0000-0000-0000-|
B|-0000-3333-0000-3300-0000-|
G|-2222-4442-2222-2244-7799-|
D|-4444-4440-4444-0022-7799-|
A|-4444-222--4444---22-5577-|
E|-xxxx-xxx--xxxx---xx-xxxx-|

GUITAR 2:
e|--------00------0000-0000-|
B|--------33------3300-3300-|
G|------4422------2211-2211-|
D|-4444-4400-4444-0022-0022-|
A|-4444-22---4444---22---22-|
E|-2222------2222---00---00-|

Final Chorus:
GUITAR 1:
e|-0000-0000-0000-0000-0000-0000-0000-0000-0000-0000-0000-0000-0~~~|
B|-0000-0000-0000-3300-0000-0000-0000-3333-0000-3300-0000-3300-0~~~|
G|-2222-4444-2211-2244-2222-4444-2211-4422-2222-2244-2222-2244-2~~~|
D|-2222-2222-4422-0022-2222-2222-4422-4400-2222-0022-2222-0022-2~~~|
A|-0000-2222-4422---22-0000-2222-4422-22---0000---22-0000---22-0~~~|
E|-0000-xxxx-xx00---xx-0000-xxxx-xx00------0000------0000---xx-0~~~|

GUITAR 2:
e|-0000-0000------0000-0000-0000------0000-0000-0000-0000-0000-0~~~|
B|-0000-0000------3300-0000-0000------3333-0000-3300-0000-3300-0~~~|
G|-2222-1111------2211-2222-1111------4422-2222-2211-2222-2211-2~~~|
D|-2222-2222-4422-0022-2222-2222-4422-4400-2222-0022-2222-0022-2~~~|
A|-0000-2222-4422---22-0000-2222-4422-22---0000---22-0000---22-0~~~|
E|-0000-0000-22xx---00-0000-0000-22xx-xx---0000---00-0000---00-0~~~|

Enjoy! Please rate/ comment!

Suggest correction
What's this?
You can suggest a correction to this tab. Community and Mods will review your correction and vote to approve or reject it.
comments
print report bad tab
1 comment total.
0 reply
mastrkillerr 11 wrote on May 27 2013, 02:13 pm

We're did you come up with this!?! It's no accurate at all. There is definitely either a different tuning ir the tab starts on open A string with a capo note third fret!

guest
You may want to rate the tab now too:
select rating
Please do not post tabs as comments. Select "correction" instead!