Oops, an error
Loading. Please wait.

Out Of Hell Tab

1,081 views 54 this week
1 commentread comment
1 2 3 4 5
1 last vote to show rating
add to favorites
launch autoscroll
font size
0
reset
how to read this tab
guitar tuner
Autoscroll
slow
fast
+/-
esc
set tempo
stop
Help us to improve Ultimate-Guitar.com Take our survey!
×
Author
Difficulty
Tuning
intermediate
B F# B E G# C#
About this tab version
The rhythm for this tab is not exact. Listen to the song for exact rhythm. Solo not included, coming soon. Was this info helpful? Yes No
Note: This is a really hard song to tab. The rhythm in the tab is not 100% correct, listen to the CD for the
exact timing. Lead guitar for the solo coming soon! :D

[Intro]

C#|---|-----------|---------------|------------|--------------|
G#|---|-----------|---------------|------------|--------------|
E |---|-----------|---------------|------------|--------------|
B |---|-----------|---------------|------------|-1-0-5-0-0----|
F#|---|---5-----5-|-----------5---|----5-----5-|-1-0-5-0-0--5-|
B |-1-|-0---1-0---|-1-0=5-0-0---1-|-0---1-0----|-1-0-5-0-0----|

C#|-----------------|-----------------|-----------------|---------------------------------|
G#|-----------------|-----------------|-----------------|---------------------------------|
E |-----------------|-----------------|-----------------|---------------------------------|
B |-0-0-0-0-0-0-1-0-|-0-0-0-0-0-0-1-0-|-0-0-0-0-0-0-1-0-|-0-0-0-0-0-0-0-0-0-0-0-0-0-0-0-0-| x2
F#|-0-0-0-0-0-0-1-0-|-0-0-0-0-0-0-1-0-|-0-0-0-0-0-0-1-0-|-0-0-0-0-0-0-0-0-0-0-0-0-0-0-0-0-|
B |-0-0-0-0-0-0-1-0-|-0-0-0-0-0-0-1-0-|-0-0-0-0-0-0-1-0-|-0-0-0-0-0-0-0-0-0-0-0-0-0-0-0-0-|


[Verse]

C#|-----------------|-----------------|-----------------|--------------|
G#|-----------------|-----------------|-----------------|--------------|
E |-----------------|-----------------|-----------------|--------------|
B |-0-0-0-0-0-0-1-0-|-0-0-0-0-0-0-1-0-|-0-0-0-0-0-0-1-0-|-0-12\-0-1-0--| x2
F#|-0-0-0-0-0-0-1-0-|-0-0-0-0-0-0-1-0-|-0-0-0-0-0-0-1-0-|-0-12\-0-1-0--|
B |-0-0-0-0-0-0-1-0-|-0-0-0-0-0-0-1-0-|-0-0-0-0-0-0-1-0-|-0-12\-0-1-0--|

[Pre-Chorus]

C#|------------|-----------------|-----------------|--------|
G#|------------|-----------------|-----------------|--------|
E |-3-3--------|-----------------|-----------------|-3-3----|
B |-3-3--5-5-5-|-0-0-0-0-0-0-1-0-|-0-0-0-0-0-0-1-0-|-3-3--5-|
F#|-1-1--5-5-5-|-0-0-0-0-0-0-1-0-|-0-0-0-0-0-0-1-0-|-1-1--5-|
B |------5-5-5-|-0-0-0-0-0-0-1-0-|-0-0-0-0-0-0-1-0-|------5-|


[Chorus]

C#|-----------------|-----------------|-----------------|------------------|
G#|-----------------|-----------------|-----------------|------------------|
E |-----------------|-----------------|-5-5-5-5-5-5-5-5-|-5-5-5-5-5-5-5-5--|
B |-3-3-3-3-3-3-3-3-|-3-3-3-3-3-3-3-3-|-5-5-5-5-5-5-5-5-|-5-5-5-5-5-5-5-5--|
F#|-3-3-3-3-3-3-3-3-|-3-3-3-3-3-3-3-3-|-3-3-3-3-3-3-3-3-|-3-3-3-3-3-3-3-3--|
B |-3-3-3-3-3-3-3-3-|-3-3-3-3-3-3-3-3-|-----------------|------------------|

C#|-----------------|-----------------|-----------------|------------------|
G#|-----------------|-----------------|-----------------|------------------|
E |-----------------|-----------------|-3-3-3-3-3-3-3-3-|-3-3-3-3-3-3-3-3--|
B |-0-0-0-0-0-0-0-0-|-0-0-0-0-0-0-0-0-|-3-3-3-3-3-3-3-3-|-3-3-3-3-3-3-3-3--|
F#|-0-0-0-0-0-0-0-0-|-0-0-0-0-0-0-0-0-|-1-1-1-1-1-1-1-1-|-1-1-1-1-1-1-1-1--|
B |-0-0-0-0-0-0-0-0-|-0-0-0-0-0-0-0-0-|-----------------|------------------|

C#|-----------------|-----------------|-----------------|------------------|
G#|-----------------|-----------------|-----------------|------------------|
E |-----------------|-----------------|-5-5-5-5-5-5-5-5-|-5-5-5-5-5-5-5-5--|
B |-3-3-3-3-3-3-3-3-|-3-3-3-3-3-3-3-3-|-5-5-5-5-5-5-5-5-|-5-5-5-5-5-5-5-5--|
F#|-3-3-3-3-3-3-3-3-|-3-3-3-3-3-3-3-3-|-3-3-3-3-3-3-3-3-|-3-3-3-3-3-3-3-3--|
B |-3-3-3-3-3-3-3-3-|-3-3-3-3-3-3-3-3-|-----------------|------------------|

C#|-----------------|-----------------|-----------------|------------------|
G#|-----------------|-----------------|-----------------|------------------|
E |-----------------|-----------------|-3-3-3-3-3-3-3-3-|-3----------------|
B |-0-0-0-0-0-0-0-0-|-0-0-0-0-0-0-0-0-|-3-3-3-3-3-3-3-3-|-3----------------|
F#|-0-0-0-0-0-0-0-0-|-0-0-0-0-0-0-0-0-|-1-1-1-1-1-1-1-1-|-1----------------|
B |-0-0-0-0-0-0-0-0-|-0-0-0-0-0-0-0-0-|-----------------|--------------1-0-|

[Link]

C#|-----------------|-----------------|-----------------|--------------------|
G#|-----------------|-----------------|-----------------|--------------------|
E |-----------------|-----------------|-----------------|--------------------|
B |-0-0-0-0-0-0-1-0-|-0-0-0-0-0-0-1-0-|-0-0-0-0-0-0-1-0-|-0-0-0-0-0-0-0-0-0--|
F#|-0-0-0-0-0-0-1-0-|-0-0-0-0-0-0-1-0-|-0-0-0-0-0-0-1-0-|-0-0-0-0-0-0-0-0-0--|
B |-0-0-0-0-0-0-1-0-|-0-0-0-0-0-0-1-0-|-0-0-0-0-0-0-1-0-|-0-0-0-0-0-0-0-0-0--|

[Verse]

C#|-----------------|-----------------|-----------------|--------------|
G#|-----------------|-----------------|-----------------|--------------|
E |-----------------|-----------------|-----------------|--------------|
B |-0-0-0-0-0-0-1-0-|-0-0-0-0-0-0-1-0-|-0-0-0-0-0-0-1-0-|-0-12\-0-1-0--| x2
F#|-0-0-0-0-0-0-1-0-|-0-0-0-0-0-0-1-0-|-0-0-0-0-0-0-1-0-|-0-12\-0-1-0--|
B |-0-0-0-0-0-0-1-0-|-0-0-0-0-0-0-1-0-|-0-0-0-0-0-0-1-0-|-0-12\-0-1-0--|

[Pre-Chorus]

C#|------------|-----------------|-----------------|--------|
G#|------------|-----------------|-----------------|--------|
E |-3-3--------|-----------------|-----------------|-3-3----|
B |-3-3--5-5-5-|-0-0-0-0-0-0-1-0-|-0-0-0-0-0-0-1-0-|-3-3--5-|
F#|-1-1--5-5-5-|-0-0-0-0-0-0-1-0-|-0-0-0-0-0-0-1-0-|-1-1--5-|
B |------5-5-5-|-0-0-0-0-0-0-1-0-|-0-0-0-0-0-0-1-0-|------5-|

[Chorus]

C#|-----------------|-----------------|-----------------|------------------|
G#|-----------------|-----------------|-----------------|------------------|
E |-----------------|-----------------|-5-5-5-5-5-5-5-5-|-5-5-5-5-5-5-5-5--|
B |-3-3-3-3-3-3-3-3-|-3-3-3-3-3-3-3-3-|-5-5-5-5-5-5-5-5-|-5-5-5-5-5-5-5-5--|
F#|-3-3-3-3-3-3-3-3-|-3-3-3-3-3-3-3-3-|-3-3-3-3-3-3-3-3-|-3-3-3-3-3-3-3-3--|
B |-3-3-3-3-3-3-3-3-|-3-3-3-3-3-3-3-3-|-----------------|------------------|

C#|-----------------|-----------------|-----------------|------------------|
G#|-----------------|-----------------|-----------------|------------------|
E |-----------------|-----------------|-3-3-3-3-3-3-3-3-|-3-3-3-3-3-3-3-3--|
B |-0-0-0-0-0-0-0-0-|-0-0-0-0-0-0-0-0-|-3-3-3-3-3-3-3-3-|-3-3-3-3-3-3-3-3--|
F#|-0-0-0-0-0-0-0-0-|-0-0-0-0-0-0-0-0-|-1-1-1-1-1-1-1-1-|-1-1-1-1-1-1-1-1--|
B |-0-0-0-0-0-0-0-0-|-0-0-0-0-0-0-0-0-|-----------------|------------------|

C#|-----------------|-----------------|-----------------|------------------|
G#|-----------------|-----------------|-----------------|------------------|
E |-----------------|-----------------|-5-5-5-5-5-5-5-5-|-5-5-5-5-5-5-5-5--|
B |-3-3-3-3-3-3-3-3-|-3-3-3-3-3-3-3-3-|-5-5-5-5-5-5-5-5-|-5-5-5-5-5-5-5-5--|
F#|-3-3-3-3-3-3-3-3-|-3-3-3-3-3-3-3-3-|-3-3-3-3-3-3-3-3-|-3-3-3-3-3-3-3-3--|
B |-3-3-3-3-3-3-3-3-|-3-3-3-3-3-3-3-3-|-----------------|------------------|

C#|-----------------|-----------------|-----------------|------------------|
G#|-----------------|-----------------|-----------------|------------------|
E |-----------------|-----------------|-3-3-3-3-3-3-3-3-|-3----------------|
B |-0-0-0-0-0-0-0-0-|-0-0-0-0-0-0-0-0-|-3-3-3-3-3-3-3-3-|-3----------------|
F#|-0-0-0-0-0-0-0-0-|-0-0-0-0-0-0-0-0-|-1-1-1-1-1-1-1-1-|-1----------------|
B |-0-0-0-0-0-0-0-0-|-0-0-0-0-0-0-0-0-|-----------------|--------------1-0-|

[Solo]

C#|-------------|--------------|--------------|---------------|
G#|-------------|--------------|--------------|---------------|
E |-------------|--------------|--------------|---------------|
B |-------------|--------------|--------------|---------------| 
F#|-----5-----5-|-----------5--|------5----5--|-----------5---|
B |-1-0---1-0---|-1-0=5-0-0----|-1-0---1-0----|-1-0=5-0-0-----|

C#|-------------|--------------|--------------|
G#|-------------|--------------|--------------|
E |-------------|--------------|--------------|
B |-------------|--------------|--------------|
F#|-----5-----5-|-----------5--|------5----5--|
B |-1-0---1-0---|-1-0=5-0-0----|-1-0---1-0----|


C#|---------------------------------------------------------------------------|
G#|---------------------------------------------------------------------------|
E |---------------------------------------------------------------------------|
B |-8-8-8-8-8-8-8-8-10-10-10-10-10-10-10-10-8-8-8-8-8-8-8-8-0-0-0-0-0-0-0-0---|
F#|-8-8-8-8-8-8-8-8-10-10-10-10-10-10-10-10-8-8-8-8-8-8-8-8-0-0-0-0-0-0-0-0---|
B |-8-8-8-8-8-8-8-8-10-10-10-10-10-10-10-10-8-8-8-8-8-8-8-8-0-0-0-0-0-0-0-0---|

C#|---------------------------------------------------------------------------|
G#|---------------------------------------------------------------------------|
E |---------------------------------------------------------------------------|
B |-8-8-8-8-8-8-8-8-10-10-10-10-10-10-10-10-0-0-0-0-0-0-0-0-0-0-0-0-0-0-0-0---| 
F#|-8-8-8-8-8-8-8-8-10-10-10-10-10-10-10-10-0-0-0-0-0-0-0-0-0-0-0-0-0-0-0-0---|
B |-8-8-8-8-8-8-8-8-10-10-10-10-10-10-10-10-0-0-0-0-0-0-0-0-0-0-0-0-0-0-0-0---|

[Chorus]

C#|-----------------|-----------------|-----------------|------------------|
G#|-----------------|-----------------|-----------------|------------------|
E |-----------------|-----------------|-5-5-5-5-5-5-5-5-|-5-5-5-5-5-5-5-5--|
B |-3-3-3-3-3-3-3-3-|-3-3-3-3-3-3-3-3-|-5-5-5-5-5-5-5-5-|-5-5-5-5-5-5-5-5--|
F#|-3-3-3-3-3-3-3-3-|-3-3-3-3-3-3-3-3-|-3-3-3-3-3-3-3-3-|-3-3-3-3-3-3-3-3--|
B |-3-3-3-3-3-3-3-3-|-3-3-3-3-3-3-3-3-|-----------------|------------------|

C#|-----------------|-----------------|-----------------|------------------|
G#|-----------------|-----------------|-----------------|------------------|
E |-----------------|-----------------|-3-3-3-3-3-3-3-3-|-3-3-3-3-3-3-3-3--|
B |-0-0-0-0-0-0-0-0-|-0-0-0-0-0-0-0-0-|-3-3-3-3-3-3-3-3-|-3-3-3-3-3-3-3-3--|
F#|-0-0-0-0-0-0-0-0-|-0-0-0-0-0-0-0-0-|-1-1-1-1-1-1-1-1-|-1-1-1-1-1-1-1-1--|
B |-0-0-0-0-0-0-0-0-|-0-0-0-0-0-0-0-0-|-----------------|------------------|

C#|-----------------|-----------------|-----------------|------------------|
G#|-----------------|-----------------|-----------------|------------------|
E |-----------------|-----------------|-5-5-5-5-5-5-5-5-|-5-5-5-5-5-5-5-5--|
B |-3-3-3-3-3-3-3-3-|-3-3-3-3-3-3-3-3-|-5-5-5-5-5-5-5-5-|-5-5-5-5-5-5-5-5--|
F#|-3-3-3-3-3-3-3-3-|-3-3-3-3-3-3-3-3-|-3-3-3-3-3-3-3-3-|-3-3-3-3-3-3-3-3--|
B |-3-3-3-3-3-3-3-3-|-3-3-3-3-3-3-3-3-|-----------------|------------------|

C#|-----------------|-----------------|-----------------|------------------|
G#|-----------------|-----------------|-----------------|------------------|
E |-----------------|-----------------|-3-3-3-3-3-3-3-3-|-3-3-3-3-3-3-3-3--|
B |-0-0-0-0-0-0-0-0-|-0-0-0-0-0-0-0-0-|-3-3-3-3-3-3-3-3-|-3-3-3-3-3-3-3-3--|
F#|-0-0-0-0-0-0-0-0-|-0-0-0-0-0-0-0-0-|-1-1-1-1-1-1-1-1-|-1-1-1-1-1-1-1-1--|
B |-0-0-0-0-0-0-0-0-|-0-0-0-0-0-0-0-0-|-----------------|------------------|

C#|-----------------|-----------------|-----------------|------------------|
G#|-----------------|-----------------|-----------------|------------------|
E |-----------------|-----------------|-5-5-5-5-5-5-5-5-|-5-5-5-5-5-5-5-5--|
B |-3-3-3-3-3-3-3-3-|-3-3-3-3-3-3-3-3-|-5-5-5-5-5-5-5-5-|-5-5-5-5-5-5-5-5--|
F#|-3-3-3-3-3-3-3-3-|-3-3-3-3-3-3-3-3-|-3-3-3-3-3-3-3-3-|-3-3-3-3-3-3-3-3--|
B |-3-3-3-3-3-3-3-3-|-3-3-3-3-3-3-3-3-|-----------------|------------------|

C#|-----------------|-----------------|-----------------|------------------|
G#|-----------------|-----------------|-----------------|------------------|
E |-----------------|-----------------|-3-3-3-3-3-3-3-3-|-3----------------|
B |-0-0-0-0-0-0-0-0-|-0-0-0-0-0-0-0-0-|-3-3-3-3-3-3-3-3-|-3----------------|
F#|-0-0-0-0-0-0-0-0-|-0-0-0-0-0-0-0-0-|-1-1-1-1-1-1-1-1-|-1----------------|
B |-0-0-0-0-0-0-0-0-|-0-0-0-0-0-0-0-0-|-----------------|--------------1-0-|


[Outro]

C#|-----------------|-----------------|-----------------|---------------------------------|
G#|-----------------|-----------------|-----------------|---------------------------------|
E |-----------------|-----------------|-----------------|---------------------------------|
B |-0-0-0-0-0-0-1-0-|-0-0-0-0-0-0-1-0-|-0-0-0-0-0-0-1-0-|-0-0-0-0-0-0-0-0-0-0-0-0-0-0-0-0-|
F#|-0-0-0-0-0-0-1-0-|-0-0-0-0-0-0-1-0-|-0-0-0-0-0-0-1-0-|-0-0-0-0-0-0-0-0-0-0-0-0-0-0-0-0-|
B |-0-0-0-0-0-0-1-0-|-0-0-0-0-0-0-1-0-|-0-0-0-0-0-0-1-0-|-0-0-0-0-0-0-0-0-0-0-0-0-0-0-0-0-|

C#|----------------------|--------------------------------|
G#|----------------------|----------------10-11-10--------|
E |-----------9-----9-10-|-9-10-12--10-12-----------------|
B |-12--10-12----12------|--------------------------------|
F#|----------------------|--------------------------------|
B |----------------------|--------------------------------|

C#|-----------12-----12-13-|---17-15-------------------15----------15--------------|--/10\-----|
G#|-15--13-15-----15-------|---------18-17-18-17-15-------18-17-15----17-----------|-----------|
E |------------------------|------------------------17-------------------17--------|-----------|
B |------------------------|------------------------------------------------17--12-|-----------|
F#|------------------------|-------------------------------------------------------|-----------|
B |------------------------|-------------------------------------------------------|-----------|


************************************
| /   Slide up
| \   Slide down
************************************
Suggest correction
Give kudos to tab author, rate the tab!
1 2 3 4 5
comments
print report bad tab
1 comment total.
0 reply
damonfinegan2 361 Sep 23, 2016 04:35 AM

The only thing I hear (cause I listened as I read) and the end of each measure of the verses has the intro part once before either repeating or going to the pre-chorus

guest
You may want to rate the tab now too:
select rating
Wanna post a correction for this tab? Suggest correction