Oops, an error
Loading. Please wait.

Rebirthing Tab

version 1
version 1

Whole song

Interactive

94,537 views 78 this week
31 commentsread comments
1 2 3 4 5
excellent!
x 26
add to favorites
launch autoscroll
font size
0
reset
how to read this tab
guitar tuner
Tab Pro tools
  • play this tab
  • loop segment
  • change instrument
  • show fretboard
  • metronome
×
Best way to learn
"Rebirthing"
Autoscroll
slow
fast
+/-
esc
set tempo
stop
Contributor
Skillet: Rebirthing
From: Comatose
Drop C# Tuning C#-G#-C#-F#-A#-D#

palm mute=...etc
s=slide
p=pull off
~=let it ring
b=bend
r=return bend
h=hammer on

Intro
Strings then Drums
Then
D#[--------------------------------------------------]
A#[--------------------------------------------------]
F#[-7/7/7/7-9/9/9/9-10/10--5/5/5/5-3/3/3/3-----------]
C#[-0/0/0/0-0/0/0/0--0/-0--0/0/0/0-0/0/0/0--2-3/3----]
G#[-5/5/5/5-7/7/7/7--8/-8--3/3/3/3-1/1/1/1--0-0/0----]x2
C#[-0/0/0/0-0/0/0/0--0/-0--0/0/0/0-0/0/0/0--0-0/0----]
                                            . ...
Verse 1
D#[-------------------------------------]
A#[------------------------------6/6----]
F#[-----------------------------10s9----]
C#[-0/0/0-0/0/0--0--0/0/0-0/0/0---------]
G#[-0/0/0-0/0/0--0--0/0/0-0/0/0---------]x4
C#[-0/0/0-0/0/0--0--0/0/0-0/0/0---------]
    ..... .....     ..... .....

Pre-Chorus
D#[----------------------------------]
A#[----------------------------------]
F#[----------------------------------]
C#[-5----7----8----10----5-7-8-10----]
G#[-5----7----8----10----5-7-8-10----]
C#[-5----7----8----10----5-7-8-10----]
    ....................

Chorus
D#[---------------------------------------]
A#[---------------------------------------]
F#[-------------------5-------------------]
C#[-0/0/0/0--0/5--3---5---8--0--10--10----]
G#[-0/0/0/0--0/5--3---3---8--0--10---8----]x2
C#[-0/0/0/0--0/5--3-------8--0--10---8----]

Post-Chorus
D#[--------------------]
A#[--------------------]
F#[--------------------]
C#[-7/7/7/7-8/8/8/8----]
G#[-7/7/7/7-8/8/8/8----]
C#[-7/7/7/7-8/8/8/8----]
Then
D#[--------------------------------------------------]
A#[--------------------------------------------------]
F#[-7/7/7/7-9/9/9/9-10/10--5/5/5/5-3/3/3/3-----------]
C#[-0/0/0/0-0/0/0/0--0/-0--0/0/0/0-0/0/0/0--2-3/3----]
G#[-5/5/5/5-7/7/7/7--8/-8--3/3/3/3-1/1/1/1--0-0/0----]x2
C#[-0/0/0/0-0/0/0/0--0/-0--0/0/0/0-0/0/0/0--0-0/0----]
                                            . ...

Verse 2
(Same as Verse 1)

Pre-Chorus

Chorus

Post-Chorus 2
D#[--------------------]
A#[--------------------]
F#[--------------------]
C#[-7/7/7/7-8/8/8/8----]
G#[-7/7/7/7-8/8/8/8----]
C#[-7/7/7/7-8/8/8/8----]

Bridge
D#[----------------------]
A#[----------------------]
F#[----------------------]
C#[------0-------0--0----]
G#[-10-9-0-10p9--0--0----]x4
C#[------0-------0--0----]
Then
Gtr. 2
D#[-----------------]
A#[-----------------]
F#[-----------------]
C#[-8--0--10--10----]
G#[-8--0--10---8----]x2
C#[-8--0--10---8----]

Gtr. 1
(Solo)
D#[---------------------------12~~13/12~br---------------------]
A#[--------10/11/10-13~~11~10-------------10~brbr/11p10--------]
F#[-9/10/12--------------------------------------------10p9----]
C#[------------------------------------------------------------]
G#[------------------------------------------------------------]
C#[------------------------------------------------------------]
    ................

D#[----------------------------------------10h12/13b15/13--17---17h18/17--]
A#[------10/11p10--------10/11p10--10h11/13------------------15-----------]
F#[-10h12--------12/10h12--------12---------------------------------------]
C#[-----------------------------------------------------------------------]
G#[-----------------------------------------------------------------------]
C#[-----------------------------------------------------------------------]

D#[-20b22/20~-20~-20~----]
A#[----------------------]
F#[----------------------]
C#[----------------------]
G#[----------------------]
C#[----------------------]
Then
Gtr. 2
D#[-----------------]
A#[-----------------]
F#[-----------------]
C#[-8--0--10--10----]
G#[-8--0--10---8----]x2
C#[-8--0--10---8----]
Then
D#[-----------------------------------------------------------]
A#[-----------------------------------------------------------]
F#[-----------------------------------------------------------]
C#[------------------------10/8/7/8/7--7/7-8/8-10/10-10/10----]
G#[---7-8---10/8/7/8---7-8-----------8-7/7-8/8-10/10-10/10----]
C#[-7-----8----------7-----------------7/7-8/8-10/10-10/10----]
Stop

Chorus 2
D#[------------------------------------]
A#[------------------------------------]
F#[----------------5--------------s----]
C#[-----0-0/5--3---5---8--0--10---t----]
G#[-----0-0/5--3---3---8--0--10---0----]
C#[-----0-0/5--3-------8--0--10---p----]

D#[---------------------------------------]
A#[---------------------------------------]
F#[-------------------5-------------------]
C#[-0/0/0/0--0/5--3---5---8--0--10--10----]
G#[-0/0/0/0--0/5--3---3---8--0--10---8----]
C#[-0/0/0/0--0/5--3-------8--0--10---8----]

Post-Chorus 2

Ending
Same as Intro
comments
print report bad tab
31 comments total. Showing first comments. show 1 bad comment
+2 reply
fireproofcat wrote on April 17 2007, 12:32 pm

i would call this tuning drop d flat but i guess its he same thing...nice tab though

0 reply
Triviumrule!! wrote on September 3 2007, 05:39 am

its good but the chorus dont sound right. maybe its me i dunno.

I want to post or [tab]
guest
You may want to rate the tab now too:
select rating
Please do not post tabs as comments. Select "correction" instead!