Oops, an error
Loading. Please wait.

Rebirthing bass

version 2
version 2

Whole song

Interactive

by Skillet
7,388 views 1 this week
1 commentread comment
1 2 3 4 5
x 5
add to favorites
×
Save as Personal and add changes to this tab that will be seen only by you. Learn more ›
×
You can save this tab as Personal to edit and correct it or add notes. All changes will be seen only by you. Learn more »
launch autoscroll
font size
0
reset
guitar tuner
backing track
0:00
0:00
edit
Autoscroll
slow
fast
+/-
esc
set tempo
stop
Tabbed by Ravyn
Song:Rebirthing
Artist:Skillet

CORRECT Version




Drop D tuning (DADG)

Intro x4
G ----------------------------------------------------------|
D ----------------------------------------------------------|
A ----------------------------------------------------------|
D --0000----------------------------------------------------|

Verse
G ----------------------------------------------------------|
D ----------------------------------------------------------|
A ----------------------------------------------------------|
D -----------------------Same as INTRO---------------------|


Pre-Chorus
G ----------------------------------------------------------|
D -----------------------2222-33333--2----------------------|
A ------------1x16--3333---------------33-------------------|
D 5x16--7x16------------------------------------------------|

G ----------------------------------------------------------|
D ----------------------------------------------------------|
A -------0----1-----------------------------------------------|
D --5----------------------------------------------------|

Chorus
G ----------------------------------------------------------|
D ----------------------------------------------------------|
A ---5----5----------------3-3---1----------------3--1*****-|
D ----------5--5-5-5---3-3----------0--0-0---0-0------------|x2

Post-Chorus
G ------------|
D ------------|
A ------------|
D --7777--8888|

Intro
Verse
Pre-Chorus
Chorus
Post-Chorus

Bridge
Suggest correction
Creating personal tab
Creating personal tab
You can edit any tab online and save it as your Personal.

You can edit, replace or remove any tab part or add personal notes – all changes will be seen only by you.

Personal tabs can be accessed anytime from any device, even offline.
Learn more »
comments
print report bad tab
1 comment total.
+1 reply
MikerNikerBiker 10 Mar 14, 2009 03:22 AM

He uses a 5-string not a 4 string but good tab tho

guest
You may want to rate the tab now too:
select rating
Wanna post a correction for this tab? Suggest correction