Oops, an error
Loading. Please wait.

Rise Bass Tab

version 1
version 1

Whole song

Interactive

82 views 3 this week
no commentswrite comment
1 2 3 4 5
3 more votes to show rating
add to favorites
launch autoscroll
font size
0
reset
guitar tuner
Autoscroll
slow
fast
+/-
esc
set tempo
stop
Help us to improve Ultimate-Guitar.com Take our survey!
×
Author
Difficulty
intermediate
Rise Bass tab enjoy!

Verse x2
G|---------------------------------|
D|---------------------------------|
A|---------------------------------| 
E|--0-0--3~--0-0-5~--0-0-7~--0-0-9~|


G|---------------------------------|
D|---------------------------------|
A|---------------------------------| 
E|--0-0-5~--0-0-7~--0-0-9~-0-0-7-5-|

Pre-chorus

G|---------------------------------|
D|---------------------------------|
A|---------------------------------| x16
E|-0-------------------------------|

G|---------------------------------|
D|---------------------------------|
A|---------------------------------|  x8
E|-3-------------------------------|

G|---------------------------------|
D|---------------------------------|
A|---------------------------------| 
E|-5--5----------------------------|

Chorus
G|----------------------------|
D|----------------------------|
A|----------------------------| x3
E|--0-0--3~--0-0-2~--0-5-0-7-5|


G|---------------------------------------------------------------|
D|---------------------------------------------------------------|
A|---------------------------------------------------------------| 
E|0-0-0-0-0-0-0-0-3-3-3-3-3-3-3-3-5-5-5-5-5-5-5-5-7-7-7-7-7-7-7-7|



G|---------------------------------|
D|---------------------------------|
A|---------------------------------| x2
E|--0-0--3~--0-0-5~--0-0-7~--0-0-9~|

Bridge
G|----------------------------------------------------------------------------------------------|
D|----------------------------------------------------------------------------------------------|
A|----------------------------------------------------------------------------------------------|
E|0-0-0-0-0-0-0-0-3-3-3-3-3-3-3-3-5-5-5-5-5-5-5-5-7-7-7-9-9-9-9-9-12-12-12-12-12-12-15-15-15-13-|

G|---------------------------------|
D|---------------------------------|
A|---------------------------------| 
E|-0-0-7--5-0-0-0-5-3-0------------|

rest

3:14
G|---------------------------------------------------------------|
D|---------------------------------------------------------------|
A|---------------------------------------------------------------| x2 
E|0-0-0-0-0-0-0-0-3-3-3-3-3-3-3-3-5-5-5-5-5-5-5-5-7-7-7-7-7-7-7-7|

G|----------------------------|
D|----------------------------|
A|----------------------------| x2
E|--0-0--3~--0-0-2~--0-5-0-7-5|

G|----------------------------|
D|----------------------------|
A|----------------------------| 
E|-0-0-0-0-5-3----------------|

thank you please rate, favorite, comment and follow!
Suggest correction
Give kudos to tab author, rate the tab!
1 2 3 4 5
comments
print report bad tab
guest
You may want to rate the tab now too:
select rating
Wanna post a correction for this tab? Suggest correction