Oops, an error
Loading. Please wait.

Rise tab

version 1
version 1

Whole song

Interactive

by Skillet
22,545 views 39 this week
6 commentsread comments
1 2 3 4 5
x 14
add to favorites
×
Save as Personal and add changes to this tab that will be seen only by you. Learn more ›
×
You can save this tab as Personal to edit and correct it or add notes. All changes will be seen only by you. Learn more »
launch autoscroll
font size
0
reset
how to read this tab
guitar tuner
edit
Autoscroll
slow
fast
+/-
esc
set tempo
stop
RISE - Skillet
Tabbed by: MittenMatt7
E-mail: mitten_matt@hotmail.com
Tuning:Drop C

[Intro]
D|---------------------------------------------------------------------|
A|---------------------------------------------------------------------|
F|---------------------------------------------------------------------|
C|--x-x---4-4-4---4-4---4-4-4-4---4-4---4-7-7-7---7-7---7-7-7-7---7-7--|
G|--x-x---4-4-4---4-4---4-4-4-4---4-4---4-7-7-7---7-7---7-7-7-7---7-7--|
C|--x-x---4-4-4---4-4---4-4-4-4---4-4---4-7-7-7---7-7---7-7-7-7---7-7--|

D|---------------------------------------------------------------------|
A|---------------------------------------------------------------------|
F|---------------------------------------------------------------------|
C|--7-0-0-0---0-0---0-0-0-0---0-0---0-9-9-9---9-9---9-7-9---9-9-7------|
G|--7-0-0-0---0-0---0-0-0-0---0-0---0-9-9-9---9-9---9-7-9---9-9-7------|
C|--7-0-0-0---0-0---0-0-0-0---0-0---0-9-9-9---9-9---9-7-9---9-9-7------|

Electric 2
D|-----6-6-4-4-7-7-----6-6-4-4-2-4-|    
A|-4-4-------------4-4-------------|    
F|---------------------------------|    
C|---------------------------------| x3 
G|---------------------------------|    
C|---------------------------------|  

[Verse]  (x2)
D|---------------------------------------------------------------------|
A|---------------------------------------------------------------------|
F|---------------------------------------------------------------------|
C|--------4-4-4-4---------4-4-4-4---------7-7-7-7---------7-7-7-7------|
G|--------4-4-4-4---------4-4-4-4---------7-7-7-7---------7-7-7-7------|
C|--------4-4-4-4---------4-4-4-4---------7-7-7-7---------7-7-7-7------|
          * * * *         * * * *         * * * *         * * * *
D|---------------------------------------------------------------------|
A|---------------------------------------------------------------------|
F|---------------------------------------------------------------------|
C|--------0-0-0-0---------0-0-0-0---------9-9-9-9---------7h9---9-9-7--|
G|--------0-0-0-0---------0-0-0-0---------9-9-9-9---------7h9---9-9-7--|
C|--------0-0-0-0---------0-0-0-0---------9-9-9-9---------7h9---9-9-7--|
          * * * *         * * * *         * * * *

[Pre-Chorus]
D|---------------------------------------------------------------------|
A|---------------------------------------------------------------------|
F|--7---7---7---7---7---7---7---7---9---9---9---9--10--10--10--10------|
C|--7---7---7---7---7---7---7---7---9---9---9---9--10--10--10--10------|
G|--5---5---5---5---5---5---5---5---7---7---7---7---8---8---8---8------|
C|---------------------------------------------------------------------|

[Chorus]
D|----------------------------------------------------------|     |
A|----------------------------------------------------------|     |
F|-------------------------------------------4---4---6---6--|     |
C|--4---4--------4---4---7---0---0---0---0---4---4---6---6--|  x3 |
G|--4---4---7b---4---4---7---0---0---0---0---2---2---4---4--|     |
C|--4---4--------4---4---7---0---0---0---0------------------|     |

D|---------------------------------------------------------------------|
A|---------------------------------------------------------------------|
F|--7---7---7---7---7---7---7---7---9---9---9---9--10--10--10--10------|
C|--7---7---7---7---7---7---7---7---9---9---9---9--10--10--10--10------|
G|--5---5---5---5---5---5---5---5---7---7---7---7---8---8---8---8------|
C|---------------------------------------------------------------------|

[Post-Chorus]
D|-------------------------|
A|-------------------------|
F|-------------------------|
C|--4---4---x-x-x---4---4--|
G|--4---4---x-x-x---4---4--|
C|--4---4---x-x-x---4---4--|

D|---------------------------------------------------------------------|
A|---------------------------------------------------------------------|
F|---------------------------------------------------------------------|
C|--------4-4-4---4-4---4-4-4-4---4-4---4-7-7-7---7-7---7-7-7-7---7-7--|
G|--------4-4-4---4-4---4-4-4-4---4-4---4-7-7-7---7-7---7-7-7-7---7-7--|
C|--------4-4-4---4-4---4-4-4-4---4-4---4-7-7-7---7-7---7-7-7-7---7-7--|

D|---------------------------------------------------------------------|
A|---------------------------------------------------------------------|
F|---------------------------------------------------------------------|
C|--7-0-0-0---0-0---0-0-0-0---0-0---0-9-9-9---9-9---9-7-9---9-9-7------|
G|--7-0-0-0---0-0---0-0-0-0---0-0---0-9-9-9---9-9---9-7-9---9-9-7------|
C|--7-0-0-0---0-0---0-0-0-0---0-0---0-9-9-9---9-9---9-7-9---9-9-7------|

[Interlude]
D|---------------------------|
A|---------------------------|
F|---------------------------|
C|--4---4-4---------4---4-4--|
G|--4---4-4---------4---4-4--|
C|--4---4-4---------4---4-4--|

[Verse 2]
D|---------------------------------------------------------------------|
A|---------------------------------------------------------------------|
F|---------------------------------------------------------------------|
C|--------4-4-4-4---------4-4-4-4---------7-7-7-7---------7-7-7-7------|
G|--------4-4-4-4---------4-4-4-4---------7-7-7-7---------7-7-7-7------|
C|--------4-4-4-4---------4-4-4-4---------7-7-7-7---------7-7-7-7------|
          * * * *         * * * *         * * * *         * * * *
D|---------------------------------------------------------------------|
A|---------------------------------------------------------------------|
F|---------------------------------------------------------------------|
C|--------0-0-0-0---------0-0-0-0---------9-9--------9-9--------9-7----|
G|--------0-0-0-0---------0-0-0-0---------9-9--------9-9--------9-7----|
C|--------0-0-0-0---------0-0-0-0---------9-9--------9-9--------9-7----|
          * * * *         * * * *         
D|---------------------------------------------------------------------|
A|---------------------------------------------------------------------|
F|---------------------------------------------------------------------|
C|--------4-4-4-4---------4-4-4-4---------7-7-7-7---------7-7-7-7------|
G|--------4-4-4-4---------4-4-4-4---------7-7-7-7---------7-7-7-7------|
C|--------4-4-4-4---------4-4-4-4---------7-7-7-7---------7-7-7-7------|
          * * * *         * * * *         * * * *         * * * *
D|---------------------------------------------------------------------|
A|---------------------------------------------------------------------|
F|---------------------------------------------------------------------|
C|--------0-0-0-0---------0-0-0-0---------9-9-9-9---------7h9---9-9-7--|
G|--------0-0-0-0---------0-0-0-0---------9-9-9-9---------7h9---9-9-7--|
C|--------0-0-0-0---------0-0-0-0---------9-9-9-9---------7h9---9-9-7--|
          * * * *         * * * *         * * * *

[Pre-Chorus]
[Chorus]
[Post-Chorus]

[Bridge]
D|---------------------------------------------------------------------|
A|---------------------------------------------------------------------|
F|--7---7---7---7---7---7---7---6---4---4---4---4---4---4---4---4------|
C|--7---7---7---7---7---7---7---6---4---4---4---4---4---4---4---4------|
G|--5---5---5---5---5---5---5---4---2---2---2---2---2---2---2---2------|
C|---------------------------------------------------------------------|

D|---------------------------------------------------------------------|
A|---------------------------------------------------------------------|
F|---------------------------------------------------------------------|
C|--4---4---4---4---4---4---4---4---7---7---7---7---7---7---7---7------|
G|--4---4---4---4---4---4---4---4---7---7---7---7---7---7---7---7------|
C|--4---4---4---4---4---4---4---4---7---7---7---7---7---7---7---7------|

D|---------------------------------------------------------------------|
A|---------------------------------------------------------------------|
F|--7---7---7---7---7---7---7---6---4---4---4---4---4---4---4---4------|
C|--7---7---7---7---7---7---7---6---4---4---4---4---4---4---4---4---4--|
G|--5---5---5---5---5---5---5---4---2---2---2---2---2---2---2---2---4--|
C|------------------------------------------------------------------4--|

D|---------------------------------------------------------------------|
A|---------------------------------------------------------------------|
F|-----4-------6-------7-------9---------------------------------------|
C|-----4-------6-------7-------9--------x-x-x-x------------------------|
G|-----2-------4-------5-------7--------x-x-x-x------------------------|
C|--------------------------------------x-x-x-x------------------------|

[Pre-Chorus]
[Intro]

[Outro]
D|---------------|
A|---------------|
F|---------------|
C|---------------|
G|---------------|
C|--7-9-7-4-5-7--|

************************************

| x  Dead note
| h  Hammer-on
| b  Bend

************************************

            
            
Suggest correction
Creating personal tab
Creating personal tab
You can edit any tab online and save it as your Personal.

You can edit, replace or remove any tab part or add personal notes – all changes will be seen only by you.

Personal tabs can be accessed anytime from any device, even offline.
Learn more »
comments
print report bad tab
6 comments total. Showing first comments.
0 reply
navarronvo 10 Jul 14, 2013 08:33 PM

Nice tab :)

-1 reply
carnage1216 10 Jul 29, 2013 12:02 PM

intro goes like this :
E 6 4 7 6 4 2 4
B 4 4 repeat 2x

-1 reply
sarel.grabe 10 Sep 30, 2013 08:44 AM

Intro as so

D|-----6-6-4-4-7-7-----6-6-4-4-2-4-| |
A|-4-4-------------4-4-------------| |
F|---------------------------------| |
C|---------------------------------| x3 |
G|---------------------------------| |
C|---------------------------------| |

guest
You may want to rate the tab now too:
select rating
Wanna post a correction for this tab? Suggest correction