Oops, an error
Loading. Please wait.

Rise tab

version 2
version 2

Whole song

Interactive

by Skillet
1,820 views 15 this week
2 commentsread comments
1 2 3 4 5
x 4
add to favorites
×
Save as Personal and add changes to this tab that will be seen only by you. Learn more ›
×
You can save this tab as Personal to edit and correct it or add notes. All changes will be seen only by you. Learn more »
launch autoscroll
font size
0
reset
how to read this tab
guitar tuner
edit
Autoscroll
slow
fast
+/-
esc
set tempo
stop
Rise – Skillet

Tuning: Drop D
Level: Easy/Medium
Tabbed by: notgonnadie

-UPDATED 25 SEPTEMBER 2014-

This tab sounds very good in my opinion. Although they play it in Drop C tuning, I think the notes
 are 99% correct and they sound very similar to the recording, even when played in Drop C. 
Most of the rhythm parts of this song are palm muted, but you can listen to the recording 
to figure out which parts are muted. If you have any questions or comments, please comment. Enjoy!

“WHATS NEW”
*Updated intro pt.1
*Updated bridge

Intro Pt. 1             

E-------7-7-7-5-5-5-8-8-8-|
B-5-5-5-------------------|
G-------------------------|
D-------------------------|
A-------------------------|
D-------------------------|

E-------7-7-7-5-5-5---5---|
B-5-5-5-------------8-----|
G-------------------------|
D-------------------------|
A-------------------------|
D-------------------------|

E-------7-7-7-5-5-5-8-8-8-|
B-5-5-5-------------------|
G-------------------------|
D-------------------------|
A-------------------------|
D-------------------------|

E-------7-7-7-5-5-5---5---|
B-5-5-5-------------8-----|
G-------------------------|
D-------------------------|
A-------------------------|
D-------------------------|


Intro Pt. 2

E-------------------------|
B-------------------------|
G-------------------------|
D-2-2-2-2-2-2-2-2-2-2-2-2-|
A-2-2-2-2-2-2-2-2-2-2-2-2-|
D-2-2-2-2-2-2-2-2-2-2-2-2-|

E-------------------------|
B-------------------------|
G-------------------------|
D-5-5-5-5-5-5-5-5-5-5-5-5-|
A-5-5-5-5-5-5-5-5-5-5-5-5-|
D-5-5-5-5-5-5-5-5-5-5-5-5-|


E-------------------------------------|
B-------------------------------------|
G-------------------------------------|
D-10-10-10-10-10-10-10-10-10-10-10-10-|
A-10-10-10-10-10-10-10-10-10-10-10-10-|
D-10-10-10-10-10-10-10-10-10-10-10-10-|

E---------------------|
B---------------------|
G---------------------|
D-7-7-7-7-7-7-5/7-7/5-|
A-7-7-7-7-7-7-5/7-7/5-|
D-7-7-7-7-7-7-5/7-7/5-|


Verse 

E-----------------------------------------|
B-----------------------------------------|
G-----------------------------------------|
D-2-2-2-2-2-2-2-2-2-2-5-5-5-5-5-5-5-5-5-5-|
A-2-2-2-2-2-2-2-2-2-2-5-5-5-5-5-5-5-5-5-5-|
D-2-2-2-2-2-2-2-2-2-2-5-5-5-5-5-5-5-5-5-5-|

E-------------------------------|
B-------------------------------|
G-------------------------------|
D-10-10-10-10-10-10-10-10-10-10-|
A-10-10-10-10-10-10-10-10-10-10-|
D-10-10-10-10-10-10-10-10-10-10-|

E-------------------|
B-------------------|
G-------------------|
D-7-7-7-7-7-5/7-7/5-|
A-7-7-7-7-7-5/7-7/5-|
D-7-7-7-7-7-5/7-7/5-|

E-----------------------------------------|
B-----------------------------------------|
G-----------------------------------------|
D-2-2-2-2-2-2-2-2-2-2-5-5-5-5-5-5-5-5-5-5-|
A-2-2-2-2-2-2-2-2-2-2-5-5-5-5-5-5-5-5-5-5-|
D-2-2-2-2-2-2-2-2-2-2-5-5-5-5-5-5-5-5-5-5-|

E-------------------------------|
B-------------------------------|
G-------------------------------|
D-10-10-10-10-10-10-10-10-10-10-|
A-10-10-10-10-10-10-10-10-10-10-|
D-10-10-10-10-10-10-10-10-10-10-|

E-------------------|
B-------------------|
G-------------------|
D-7-7-7-7-7-5/7-7/5-|
A-7-7-7-7-7-5/7-7/5-|
D-7-7-7-7-7-5/7-7/5-|

Pre-Chorus

E-------------------------------------|
B-------------------------------------|
G-------------------------------------|
D-10-10-10-10-10-10-10-10-12-12-12-12-|
A-10-10-10-10-10-10-10-10-12-12-12-12-|
D-10-10-10-10-10-10-10-10-12-12-12-12-|

E------------------------|
B------------------------|
G------------------------|
D-13-13-13-13------13-13-|
A-13-13-13-13------13-13-|
D-13-13-13-13------13-13-| 
(wait a few seconds before playing 13-13)

Chorus

E----------------------------------|
B----------------------------------|
G----------------------------------|
D-2-2-12-2-2-5-10-10-10-10-7-7—9-9-|
A-2-2-12-2-2-5-10-10-10-10-7-7—9-9-|
D-2-2-12-2-2-5-10-10-10-10-7-7—9-9-|


E----------------------------------|
B----------------------------------|
G----------------------------------|
D-2-2-12-2-2-5-10-10-10-10-7-7—9-9-|
A-2-2-12-2-2-5-10-10-10-10-7-7—9-9-|
D-2-2-12-2-2-5-10-10-10-10-7-7—9-9-|

E----------------------------------|
B----------------------------------|
G----------------------------------|
D-2-2-12-2-2-5-10-10-10-10-7-7—9-9-|
A-2-2-12-2-2-5-10-10-10-10-7-7—9-9-|
D-2-2-12-2-2-5-10-10-10-10-7-7—9-9-|

E-------------------------------------|
B-------------------------------------|
G-------------------------------------|
D-10-10-10-10-10-10-10-10-12-12-12-12-|
A-10-10-10-10-10-10-10-10-12-12-12-12-|
D-10-10-10-10-10-10-10-10-12-12-12-12-|

E----------|
B----------|
G----------|
D-13-13-13-|
A-13-13-13-|
D-13-13-13-|

E--------------------------------|
B--------------------------------|
G--------------------------------|
D-2-2-2-2-2-2-2-2-2-2-2-2-2-2-2-2|
A-2-2-2-2-2-2-2-2-2-2-2-2-2-2-2-2|
D-2-2-2-2-2-2-2-2-2-2-2-2-2-2-2-2|

(Play intro pt. 1 during parts with no singing)

E-----------------------------------------|
B-----------------------------------------|
G-----------------------------------------|
D-5-5-5-5-5-5-5-5-10-10-10-10-10-10-10-10-|
A-5-5-5-5-5-5-5-5-10-10-10-10-10-10-10-10-|
D-5-5-5-5-5-5-5-5-10-10-10-10-10-10-10-10-|

E-----------------|
B-----------------|
G-----------------|
D-7-7-7-7-5/7-7/5-|
A-7-7-7-7-5/7-7/5-|
D-7-7-7-7-5/7-7/5-|

E-----------|
B-----------|
G-----------|
D-2-2--2-2--|
A-2-2--2-2--|
D-2-2--2-2--|

Verse

E-----------------------------------------|
B-----------------------------------------|
G-----------------------------------------|
D-2-2-2-2-2-2-2-2-2-2-5-5-5-5-5-5-5-5-5-5-|
A-2-2-2-2-2-2-2-2-2-2-5-5-5-5-5-5-5-5-5-5-|
D-2-2-2-2-2-2-2-2-2-2-5-5-5-5-5-5-5-5-5-5-|

E-------------------------------|
B-------------------------------|
G-------------------------------|
D-10-10-10-10-10-10-10-10-10-10-|
A-10-10-10-10-10-10-10-10-10-10-|
D-10-10-10-10-10-10-10-10-10-10-|

E-------------------|
B-------------------|
G-------------------|
D-7-7-7-7-7-5/7-7/5-|
A-7-7-7-7-7-5/7-7/5-|
D-7-7-7-7-7-5/7-7/5-|

E-----------------------------------------|
B-----------------------------------------|
G-----------------------------------------|
D-2-2-2-2-2-2-2-2-2-2-5-5-5-5-5-5-5-5-5-5-|
A-2-2-2-2-2-2-2-2-2-2-5-5-5-5-5-5-5-5-5-5-|
D-2-2-2-2-2-2-2-2-2-2-5-5-5-5-5-5-5-5-5-5-|

E-------------------------------|
B-------------------------------|
G-------------------------------|
D-10-10-10-10-10-10-10-10-10-10-|
A-10-10-10-10-10-10-10-10-10-10-|
D-10-10-10-10-10-10-10-10-10-10-|

E-------------------|
B-------------------|
G-------------------|
D-7-7-7-7-7-5/7-7/5-|
A-7-7-7-7-7-5/7-7/5-|
D-7-7-7-7-7-5/7-7/5-|

Pre-Chorus

E-------------------------------------|
B-------------------------------------|
G-------------------------------------|
D-10-10-10-10-10-10-10-10-12-12-12-12-|
A-10-10-10-10-10-10-10-10-12-12-12-12-|
D-10-10-10-10-10-10-10-10-12-12-12-12-|

E------------------------|
B------------------------|
G------------------------|
D-13-13-13-13------13-13-|
A-13-13-13-13------13-13-|
D-13-13-13-13------13-13-| 
(wait a few seconds before playing 13-13)

Chorus

E----------------------------------|
B----------------------------------|
G----------------------------------|
D-2-2-12-2-2-5-10-10-10-10-7-7—9-9-|
A-2-2-12-2-2-5-10-10-10-10-7-7—9-9-|
D-2-2-12-2-2-5-10-10-10-10-7-7—9-9-|


E----------------------------------|
B----------------------------------|
G----------------------------------|
D-2-2-12-2-2-5-10-10-10-10-7-7—9-9-|
A-2-2-12-2-2-5-10-10-10-10-7-7—9-9-|
D-2-2-12-2-2-5-10-10-10-10-7-7—9-9-|

E----------------------------------|
B----------------------------------|
G----------------------------------|
D-2-2-12-2-2-5-10-10-10-10-7-7—9-9-|
A-2-2-12-2-2-5-10-10-10-10-7-7—9-9-|
D-2-2-12-2-2-5-10-10-10-10-7-7—9-9-|

E-------------------------------------|
B-------------------------------------|
G-------------------------------------|
D-10-10-10-10-10-10-10-10-12-12-12-12-|
A-10-10-10-10-10-10-10-10-12-12-12-12-|
D-10-10-10-10-10-10-10-10-12-12-12-12-|

E----------|
B----------|
G----------|
D-13-13-13-|
A-13-13-13-|
D-13-13-13-|

E--------------------------------|
B--------------------------------|
G--------------------------------|
D-2-2-2-2-2-2-2-2-2-2-2-2-2-2-2-2|
A-2-2-2-2-2-2-2-2-2-2-2-2-2-2-2-2|
D-2-2-2-2-2-2-2-2-2-2-2-2-2-2-2-2|

(Play intro pt. 1 during parts with no singing)

E-----------------------------------------|
B-----------------------------------------|
G-----------------------------------------|
D-5-5-5-5-5-5-5-5-10-10-10-10-10-10-10-10-|
A-5-5-5-5-5-5-5-5-10-10-10-10-10-10-10-10-|
D-5-5-5-5-5-5-5-5-10-10-10-10-10-10-10-10-|

E-----------------|
B-----------------|
G-----------------|
D-7-7-7-7-5/7-7/5-|
A-7-7-7-7-5/7-7/5-|
D-7-7-7-7-5/7-7/5-|

E-----------|
B-----------|
G-----------|
D-2-2--2-2--|
A-2-2--2-2--|
D-2-2--2-2--|

Bridge

E---------------------------------------|
B---------------------------------------|
G---------------------------------------|
D-10-10-10-10-10-10-9-7-7-7-7-5/7-5-4-0-|
A-10-10-10-10-10-10-9-7-7-7-7-5/7-5-4-0-|
D-10-10-10-10-10-10-9-7-7-7-7-5/7-5-4-0-|

E-----------------------------------|
B-----------------------------------|
G-----------------------------------|
D-2-2-2-2-2-2-2-2-5-5-5-5-5-5-5-5-5-|
A-2-2-2-2-2-2-2-2-5-5-5-5-5-5-5-5-5-|
D-2-2-2-2-2-2-2-2-5-5-5-5-5-5-5-5-5-|


E--------------------------------------|
B--------------------------------------|
G--------------------------------------|
D-10-10-10-10-10-10-9-7-7-7-7-7-7-7-7-2|
A-10-10-10-10-10-10-9-7-7-7-7-7-7-7-7-2|
D-10-10-10-10-10-10-9-7-7-7-7-7-7-7-7-2|

(No guitar until “Never give up, no!”)

E---------------------|
B---------------------|
G---------------------|
D-7-7-9-9-10-10-12-12-|
A-7-7-9-9-10-10-12-12-|
D-7-7-9-9-10-10-12-12-|

Link

E---------------------|
B---------------------|
G---------------------|
D-2-2-2-2-2-2-2-2-2-2-|
A-2-2-2-2-2-2-2-2-2-2-|
D-2-2-2-2-2-2-2-2-2-2-|

E---------------------|
B---------------------|
G---------------------|
D-2-2-2-2-2-2-2-2-2-2-|
A-2-2-2-2-2-2-2-2-2-2-|
D-2-2-2-2-2-2-2-2-2-2-|

E---------------------|
B---------------------|
G---------------------|
D-2-2-2-2-2-2-2-2-2-2-|
A-2-2-2-2-2-2-2-2-2-2-|
D-2-2-2-2-2-2-2-2-2-2-|

E---------------------|
B---------------------|
G---------------------|
D-2-2-2-2-2-2-2-2-2-2-|
A-2-2-2-2-2-2-2-2-2-2-|
D-2-2-2-2-2-2-2-2-2-2-|

Pre-Chorus

E-------------------------------------|
B-------------------------------------|
G-------------------------------------|
D-10-10-10-10-10-10-10-10-12-12-12-12-|
A-10-10-10-10-10-10-10-10-12-12-12-12-|
D-10-10-10-10-10-10-10-10-12-12-12-12-|

E----------|
B----------|
G----------|
D-13-13-13-|
A-13-13-13-|
D-13-13-13-|

Chorus

E---------------------------------|
B---------------------------------|
G---------------------------------|
D-2-2-2-2-2-2-2-2-5-5-5-5-5-5-5-5-|
A-2-2-2-2-2-2-2-2-5-5-5-5-5-5-5-5-|
D-2-2-2-2-2-2-2-2-5-5-5-5-5-5-5-5-|

E--------------------------------------|
B--------------------------------------|
G--------------------------------------|
D-10-10-10-10-10-10-10-7-7-7-7-7-7-7-7-|
A-10-10-10-10-10-10-10-7-7-7-7-7-7-7-7-|
D-10-10-10-10-10-10-10-7-7-7-7-7-7-7-7-|

E--------------------------------------|
B--------------------------------------|
G--------------------------------------|
D-5/7-7/5-2-2-2-7/5-|
A-5/7-7/5-2-2-2-7/5-|
D-5/7-7/5-2-2-2-7/5-|

Outro

E---|
B---|
G---|
D-2-|
A-2-|
D-2-|

That’s about it! Thanks for playing my tab. I hope you enjoy this tab, have fun, and God bless!
 Be sure to check out my other tabs!

            
            
Suggest correction
Creating personal tab
Creating personal tab
You can edit any tab online and save it as your Personal.

You can edit, replace or remove any tab part or add personal notes – all changes will be seen only by you.

Personal tabs can be accessed anytime from any device, even offline.
Learn more »
comments
print report bad tab
2 comments total.
0 reply
MittenMatt7 104 Jun 18, 2014 04:28 PM

Lack of accuracy.

0 reply
notgonnadie 466 Sep 04, 2014 06:54 PM

Okay I will update my Rise tab as soon as I have the time:) Ive been really busy lately but all in good time, friend!

guest
You may want to rate the tab now too:
select rating
Wanna post a correction for this tab? Suggest correction