Oops, an error
Loading. Please wait.

Savior Bass Tab

version 4
version 4

Whole song

Interactive

7 views 1 this week
no commentswrite comment
1 2 3 4 5
3 more votes to show rating
add to favorites
launch autoscroll
font size
0
reset
guitar tuner
Autoscroll
slow
fast
+/-
esc
set tempo
stop
Help us to improve Ultimate-Guitar.com Take our survey!
×
Author
Difficulty
Tuning
novice
B E A D F# B
[Intro/post-chorus]

G|---------------------------------------------------------------------------|
D|---------------------------------------------------------------------------|
A|---------------6-6-6-6-----------------------------------------------------| x3
E|-3-3-3-3-3-3-3-------------------------------------------------------------|


[1st and 2nd Verse rest]


[Pre-Chorus]
G|-----------------------------------------------------------------------------------------------|
D|-----------------------------------------------------------------------------------------------|


A|-----------------------------------------------------------------------------------------------| x3
E|-3-3-3-3-1-1-1-1-8-8-7-7-5-5-------------------------------------------------------------------|

[Chorus]

G|---------------------------------------------------------------------------|
D|---------------------------------------------------------------------------|
A|---------------------------------------------------------------------------| x4
E|--0-0-2-0-0-3-0-0-7-0-0-0-0-0-5-4------------------------------------------|

[breakdown] (repaet till bridge)


G|---------------------------------------------------------------------------|
D|---------------------------------------------------------------------------|
A|---------------------------------------------------------------------------|
E|-3-3-3--3-3-3-3-8-8-8-8-7-7-7-7--------------------------------------------|

[Bridge]

G|---------------------------------------------------------------------------|
D|---------------------------------------------------------------------------|
A|-------------------------------------------7-7-7-7--------------7-7-7-7----|
E|-3-3-3-3-3-3-3-3-3-3-3-3-3-3-3-3-3-3-3-3-3---------3-3-3--3-3-3------------|

[Outro]
(same as intro)
Suggest correction
Give kudos to tab author, rate the tab!
1 2 3 4 5
comments
print report bad tab
guest
You may want to rate the tab now too:
select rating
Wanna post a correction for this tab? Suggest correction