Oops, an error
Loading. Please wait.

Sick Of It Tab

version 2
version 2

Whole song

Interactive

14,629 views 30 this week
no commentswrite comment
1 2 3 4 5
x 18
add to favorites
launch autoscroll
font size
0
reset
how to read this tab
guitar tuner
Autoscroll
slow
fast
+/-
esc
set tempo
stop
Help us to improve Ultimate-Guitar.com Take our survey!
×
Author
Difficulty
Tuning
novice
C G C F A D
Skillet- SICK OF IT

DROP C (CGCFAD)

[Intro]
D|---------------------------------------------------------------|
A|---------------------------------------------------------------|
F|---------------------------------------------------------------|
C|0-0-10-0---0-10-0---0-8-0-5-0-3-0---0-10-0---0-10-0---0-10-8-7-|
G|0-0-10-0---0-10-0---0-8-0-5-0-3-0---0-10-0---0-10-0---0-10-8-7-|
C|0-0-10-0---0-10-0---0-8-0-5-0-3-0---0-10-0---0-10-0---0-10-8-7-|

[Verse]
D|---------------------------------------------------------------|
A|---------------------------------------------------------------|
F|---------------------------------------------------------------|
C|0-0-10-0---0-10-0---0-8-0-5-0-3-0---0-10-0---0-10-0---0-10-8-7-|
G|0-0-10-0---0-10-0---0-8-0-5-0-3-0---0-10-0---0-10-0---0-10-8-7-|
C|0-0-10-0---0-10-0---0-8-0-5-0-3-0---0-10-0---0-10-0---0-10-8-7-|

[Pre-Chorus]
D|-----------------|
A|-----------------|
F|14-14-14-14-17-8-|
C|-----------------|
G|12-12-12-12-15-6-|
C|-----------------|

[Chorus]
D|--------------------------------------|
A|--------------------------------------|
F|------------------------------5-5-5-5-|
C|0-0-0-0---8-8-8-8---3-3-3-3---5-5-5-5-|
G|0-0-0-0---8-8-8-8---3-3-3-3---3-3-3-3-|
C|0-0-0-0---8-8-8-8---3-3-3-3-----------|

D|--------------------------------------|
A|--------------------------------------|
F|------------------------------5-5-----|
C|0-0-0-0---8-8-8-8---3-3-3-3---5-5-----|
G|0-0-0-0---8-8-8-8---3-3-3-3---3-3-----|
C|0-0-0-0---8-8-8-8---3-3-3-3-------5-3-|

D|--------------------------------------|
A|--------------------------------------|
F|------------------------------5-5-5-5-|
C|0-0-0-0---8-8-8-8---3-3-3-3---5-5-5-5-|
G|0-0-0-0---8-8-8-8---3-3-3-3---3-3-3-3-|
C|0-0-0-0---8-8-8-8---3-3-3-3-----------|

D|-------------------------------|
A|-------------------------------|
F|-------------------------------|
C|8-8-8-8-8-8-8-8---7-7-7-3-10-1-|
G|8-8-8-8-8-8-8-8---7-7-7-3-10-1-|
C|8-8-8-8-8-8-8-8---7-7-7-3-10-1-|

D|---------------------------------------------------------------|
A|---------------------------------------------------------------|
F|---------------------------------------------------------------|
C|0-0-10-0---0-10-0---0-8-0-5-0-3-0---0-10-0---0-10-0---0-10-8-7-|
G|0-0-10-0---0-10-0---0-8-0-5-0-3-0---0-10-0---0-10-0---0-10-8-7-|
C|0-0-10-0---0-10-0---0-8-0-5-0-3-0---0-10-0---0-10-0---0-10-8-7-|

[Post-chorus / Verse 2]
D|--------------------------------------|
A|--------------------------------------|
F|--------------------------------------|
C|--------------------------------------|
G|X-X-X-X---X-X-X-X---X-X-X-X---X-X-X-X-|
C|0-0-0-0---0-0-0-0---0-0-0-0---0-0-0-0-|

D|----------------------------------------------------------------------------------|
A|----------------------------------------------------------------------------------|
F|----------------------------------------------------------------------------------|
C|--------------------------------5-0-3-----------------------------------------8-7-|
G|X-X-X-X-X---X-X-X-X---X-X-X-X---5-0-3---X-X-X-X-X---X-X-X-X---X-X-X---X-X-X---8-7-|
C|0-0-0-0-0---0-0-0-0---0-0-0-0---5-0-3---0-0-0-0-0---0-0-0-0---0-0-0---0-0-0---8-7-|

D|---------------------------------------------------------------|
A|---------------------------------------------------------------|
F|---------------------------------------------------------------|
C|0-0-10-0---0-10-0---0-8-0-5-0-3-0---0-10-0---0-10-0---0-10-8-7-|
G|0-0-10-0---0-10-0---0-8-0-5-0-3-0---0-10-0---0-10-0---0-10-8-7-|
C|0-0-10-0---0-10-0---0-8-0-5-0-3-0---0-10-0---0-10-0---0-10-8-7-|

[Pre-Chorus 2]
D|-----------------|
A|-----------------|
F|14-14-14-14-17-8-|
C|-----------------|
G|12-12-12-12-15-6-|
C|-----------------|

[Chorus 2]
D|--------------------------------------|
A|--------------------------------------|
F|------------------------------5-5-5-5-|
C|0-0-0-0---8-8-8-8---3-3-3-3---5-5-5-5-|
G|0-0-0-0---8-8-8-8---3-3-3-3---3-3-3-3-|
C|0-0-0-0---8-8-8-8---3-3-3-3-----------|

D|--------------------------------------|
A|--------------------------------------|
F|------------------------------5-5-----|
C|0-0-0-0---8-8-8-8---3-3-3-3---5-5-----|
G|0-0-0-0---8-8-8-8---3-3-3-3---3-3-----|
C|0-0-0-0---8-8-8-8---3-3-3-3-------5-3-|

D|--------------------------------------|
A|--------------------------------------|
F|------------------------------5-5-5-5-|
C|0-0-0-0---8-8-8-8---3-3-3-3---5-5-5-5-|
G|0-0-0-0---8-8-8-8---3-3-3-3---3-3-3-3-|
C|0-0-0-0---8-8-8-8---3-3-3-3-----------|

D|-----------------------------|
A|-----------------------------|
F|-----------------------------|
C|8-8-8-8-8-8-8-8-7-7-7-3-10-1-|
G|8-8-8-8-8-8-8-8-7-7-7-3-10-1-|
C|8-8-8-8-8-8-8-8-7-7-7-3-10-1-|

D|---------------------------------------------------------------|
A|---------------------------------------------------------------|
F|---------------------------------------------------------------|
C|0-0-10-0---0-10-0---0-8-0-5-0-3-0---0-10-0---0-10-0---0-10-8-7-|
G|0-0-10-0---0-10-0---0-8-0-5-0-3-0---0-10-0---0-10-0---0-10-8-7-|
C|0-0-10-0---0-10-0---0-8-0-5-0-3-0---0-10-0---0-10-0---0-10-8-7-|

[Bridge]
D|-----------------------------------------------------------------------|
A|-----------------------------------------------------------------------|
F|-----------------------------------------------------------------------|
C|0-10-0-0-5---0-10-0-0-8-7---------0-10-0-0-5-----------3-3-5-7-2-2-2-2-|
G|0-10-0-0-5---0-10-0-0-8-7---X-3---0-10-0-0-5-----------3-3-5-7-2-2-2-2-|
C|0-10-0-0-5---0-10-0-0-8-7---------0-10-0-0-5-3-5-7-2---3-3-5-7-2-2-2-2-|

D|-----------------------------|
A|-----------------------------|
F|-----------------------------|
C|0-0-10-0---0-10-0------------|
G|0-0-10-0---0-10-0------------|
C|0-0-10-0---0-10-0---0-3-10-1-|

[Chorus 3]
D|--------------------------------------|
A|--------------------------------------|
F|------------------------------5-5-5-5-|
C|0-0-0-0---8-8-8-8---3-3-3-3---5-5-5-5-|
G|0-0-0-0---8-8-8-8---3-3-3-3---3-3-3-3-|
C|0-0-0-0---8-8-8-8---3-3-3-3-----------|

D|--------------------------------------|
A|--------------------------------------|
F|------------------------------5-5-----|
C|0-0-0-0---8-8-8-8---3-3-3-3---5-5-----|
G|0-0-0-0---8-8-8-8---3-3-3-3---3-3-----|
C|0-0-0-0---8-8-8-8---3-3-3-3-------5-3-|

D|--------------------------------------|
A|--------------------------------------|
F|------------------------------5-5-5-5-|
C|0-0-0-0---8-8-8-8---3-3-3-3---5-5-5-5-|
G|0-0-0-0---8-8-8-8---3-3-3-3---3-3-3-3-|
C|0-0-0-0---8-8-8-8---3-3-3-3-----------|

D|--------------------------------------|
A|--------------------------------------|
F|------------------------------5-5-5-5-|
C|0-0-0-0---8-8-8-8---3-3-3-3---5-5-5-5-|
G|0-0-0-0---8-8-8-8---3-3-3-3---3-3-3-3-|
C|0-0-0-0---8-8-8-8---3-3-3-3-----------|

D|--------------------------------------|
A|--------------------------------------|
F|------------------------------5-5-5-5-|
C|0-0-0-0---8-8-8-8---3-3-3-3---5-5-5-5-|
G|0-0-0-0---8-8-8-8---3-3-3-3---3-3-3-3-|
C|0-0-0-0---8-8-8-8---3-3-3-3-----------|

D|--------------------------------------|
A|--------------------------------------|
F|------------------------------5-5-----|
C|0-0-0-0---8-8-8-8---3-3-3-3---5-5-----|
G|0-0-0-0---8-8-8-8---3-3-3-3---3-3-----|
C|0-0-0-0---8-8-8-8---3-3-3-3-------5-3-|

D|------------------------------------------------------------------------|
A|------------------------------------------------------------------------|
F|------------------------------5-5-5-5-----------------------------------|
C|0-0-0-0---8-8-8-8---3-3-3-3---5-5-5-5---8-8-8-8-8-8-8-8-7-7-7-7-7-7-7-7-|
G|0-0-0-0---8-8-8-8---3-3-3-3---3-3-3-3---8-8-8-8-8-8-8-8-7-7-7-7-7-7-7-7-|
C|0-0-0-0---8-8-8-8---3-3-3-3-------------8-8-8-8-8-8-8-8-7-7-7-7-7-7-7-7-|

[Outro]
D|------------------------------------------------------|
A|------------------------------------------------------|
F|------------------------------------------------------|
C|0-10-0-0-5---0-10-0-0-8-7---0-10-0-0-5---0-10-0-0-8-7-|
G|0-10-0-0-5---0-10-0-0-8-7---0-10-0-0-5---0-10-0-0-8-7-|
C|0-10-0-0-5---0-10-0-0-8-7---0-10-0-0-5---0-10-0-0-8-7-|

D|---------------------------------------------|
A|---------------------------------------------|
F|---------------------------------------------|
C|12-12-12-10-12-12-12-10-12-12-12---8-0-5-0-3-|
G|12-12-12-10-12-12-12-10-12-12-12---8-0-5-0-3-|
C|12-12-12-10-12-12-12-10-12-12-12---8-0-5-0-3-|

D|------------------------------------------------|
A|------------------------------------------------|
F|------------------------------------------------|
C|12-12-12-10-12-12-12-10-12-12---0-3-8-7---0-0-0-|
G|12-12-12-10-12-12-12-10-12-12---0-3-8-7---0-0-0-|
C|12-12-12-10-12-12-12-10-12-12---0-3-8-7---0-0-0-|
Suggest correction
comments
print report bad tab
guest
You may want to rate the tab now too:
select rating
Wanna post a correction for this tab? Suggest correction