Oops, an error
Loading. Please wait.
We have an official Sometimes tab made by UG professional guitarists. Check out the tab »
×
by Skillet
4,176 views 3 this week
3 commentsread comments
1 2 3 4 5
x 5
add to favorites
×
Save as Personal and add changes to this tab that will be seen only by you. Learn more ›
×
You can save this tab as Personal to edit and correct it or add notes. All changes will be seen only by you. Learn more »
launch autoscroll
font size
0
reset
how to read this tab
guitar tuner
edit
Autoscroll
slow
fast
+/-
esc
set tempo
stop
Author
Artist:          Skillet
Song:            Sometimes
Album:           Awake
Tabber:          Patrick200

Tuning:          Dropped B

Intro:            
Guitar 1        
C#||----------|---------------------|
G#||----------|---------------------|
 E||----------|---------------------|
 B||--8~--3~--|--5-5-5-5-5-5-5-5-5--|
F#||--8~--3~--|--5-5-5-5-5-5-5-5-5--|
 B||--8~--3~--|--5-5-5-5-5-5-5-5-5--|

Guitar 2        
C#||---------------------------|
G#||--15---15---15---15---15---|
 E||--17b--17b--17b--17b--17b--|
 B||---------------------------|
F#||---------------------------|
 B||---------------------------|

Guitar 1        
C#||----------------------------------------------|
G#||----------------------------------------------|
 E||----------------------------------------------|
 B||--0-0-0--0-0-0---10---0-0-0--0-0-0-10-7-8-----| 2x
F#||--0-0-0--0-0-0---10---0-0-0--0-0-0-10-7-8-----|
 B||--0-0-0--0-0-0---10---0-0-0--0-0-0-10-7-8-----|

Guitar 2 (second time)
C#||--17-17-------------------17-17-------------18-18---|
G#||--------17-17-18-18-17-17-------17-17-18-18---------|
 E||----------------------------------------------------|
 B||----------------------------------------------------|
F#||----------------------------------------------------|
 B||----------------------------------------------------|

Verse:          
Guitar 1        
C#||----------------------------------------------|
G#||----------------------------------------------|
 E||----------------------------------------------|
 B||--0-0-0--0-0-0---10---0-0-0--0-0-0-10-7-8-----| 3x
F#||--0-0-0--0-0-0---10---0-0-0--0-0-0-10-7-8-----|
 B||--0-0-0--0-0-0---10---0-0-0--0-0-0-10-7-8-----|

Guitar 1        
C#|----------------------------------------------|
G#|----------------------------------------------|
 E|----------------------------------------------|
 B|-8-8-8-8--10-10-10-10--8-8-8-8----------------|
F#|-8-8-8-8--10-10-10-10--8-8-8-8--10-10-10-10---|
 B|-8-8-8-8--10-10-10-10--8-8-8-8--10-10-10-10---|
                                    *  *  *  *
Chorus          
Guitar 1        
C#|------------------------------------|
G#|------------------------------------|
 E|------------------------------------|
 B|--8-8-8-5-5-5-5--0-0-0--0-0-0---10--| 2x
F#|--8-8-8-5-5-5-5--0-0-0--0-0-0---10--|
 B|--8-8-8-5-5-5-5--0-0-0--0-0-0---10--|

Guitar 2        
C#||--17-17-------------------17-17-------------18-18---|
G#||--------17-17-18-18-17-17-------17-17-18-18---------|
 E||----------------------------------------------------|
 B||----------------------------------------------------| 2x
F#||----------------------------------------------------|
 B||----------------------------------------------------|

Guitar 1        
C#||-------------------------------------------------------|
G#||-------------------------------------------------------|
 E||-------------------------------------------------------|
 B||--8-8-8-8-5-5-5-5-0-0-0-0-10-10-10-10-8-8-8-8-5-5-5-5--|
F#||--8-8-8-8-5-5-5-5-0-0-0-0-10-10-10-10-8-8-8-8-5-5-5-5--|
 B||--8-8-8-8-5-5-5-5-0-0-0-0-10-10-10-10-8-8-8-8-5-5-5-5--|

Intro           
Guitar 1        
C#||----------------------------------------------|
G#||----------------------------------------------|
 E||----------------------------------------------|
 B||--0-0-0--0-0-0---10---0-0-0--0-0-0-10-7-8-----| 2x
F#||--0-0-0--0-0-0---10---0-0-0--0-0-0-10-7-8-----|
 B||--0-0-0--0-0-0---10---0-0-0--0-0-0-10-7-8-----|

Guitar 2                 (second time)
C#||----5-6-5--8--6-5--||-17-17-------------------17-17-------------18-18---|
G#||--3----------------||-------17-17-18-18-17-17-------17-17-18-18---------|
 E||-------------------||---------------------------------------------------|
 B||-------------------||---------------------------------------------------|
F#||-------------------||---------------------------------------------------|
 B||-------------------||---------------------------------------------------|
Verse           
Chorus          
Bridge          
Guitar 1        
C#||-----|      
G#||-----|      
 E||-----|      
 B||-0~~-|      
F#||-0~~-|      
 B||-0~~-|      

Guitar 2        
C#||-------------------------------------|
G#||-------------------------------------|
 E||-7-7-7-9-9-9-101010-12121212/141414--|
 B||-x-x-x-x-x-x--x-x-x--x-x-x-x--x-x-x--|2x
F#||-5-5-5-7-7-7--8-8-8-10101010/121212--|
 B||-------------------------------------|

Guitar 1        
C#||-----------------------------------|
G#||-----------------------------------|
 E||-----------------------------------|
 B||--8-8-8-8-5-5-5-5-0-0-0-0--0-0-0-0-|
F#||--8-8-8-8-5-5-5-5-0-0-0-0--0-0-0-0-|
 B||--8-8-8-8-5-5-5-5-0-0-0-0--0-0-0-0-|

Guitar 2        
C#||-----------------------------------|
G#||--15----17----18----20----22-------|
 E||-----------------------------------|
 B||-----------------------------------|
F#||-----------------------------------|
 B||-----------------------------------|

Guitar 1        
C#||-------------------------------------------|
G#||-------------------------------------------|
 E||-------------------------------------------|
 B||--8-8-8-8-5-5-5-5-10-10-10-10--10-10-10-10-|
F#||--8-8-8-8-5-5-5-5-10-10-10-10--10-10-10-10-|
 B||--8-8-8-8-5-5-5-5-10-10-10-10--10-10-10-10-|

Guitar 1        
C#||---------------------------------------|
G#||---------------------------------------|
 E||---------------------------------------|
 B||--8-8-8-8-5-5-5-5-0-0-0-0-10-10-10-10--|
F#||--8-8-8-8-5-5-5-5-0-0-0-0-10-10-10-10--|
 B||--8-8-8-8-5-5-5-5-0-0-0-0-10-10-10-10--|

Guitar 1        
C#||----------|---------------------|
G#||----------|---------------------|
 E||----------|---------------------|
 B||--8~--3~--|--5-5-5-5-5-5-5-5-5--|
F#||--8~--3~--|--5-5-5-5-5-5-5-5-5--|
 B||--8~--3~--|--5-5-5-5-5-5-5-5-5--|

Guitar 1        
C#||----------------------------------------------|
G#||----------------------------------------------|
 E||----------------------------------------------|
 B||--0-0-0--0-0-0---10---0-0-0--0-0-0-10-7-8-----| 2x
F#||--0-0-0--0-0-0---10---0-0-0--0-0-0-10-7-8-----|
 B||--0-0-0--0-0-0---10---0-0-0--0-0-0-10-7-8-----|

Chorus:         
Outro:          
Guitar 1        
C#||-----------------------------------------------------------|
G#||-----------------------------------------------------------|
 E||-----------------------------------------------------------|
 B||--0-0-0--0-0-0---10---0-0-0--0-0-0--10---0-0-0--0-0-0--10--|
F#||--0-0-0--0-0-0---10---0-0-0--0-0-0--10---0-0-0--0-0-0--10--|
 B||--0-0-0--0-0-0---10---0-0-0--0-0-0--10---0-0-0--0-0-0--10--|

Guitar 2                 
C#||-----5-6-5--8--6-5--||
G#||---3----------------||
 E||--------------------||
 B||--------------------||3x
F#||--------------------||
 B||--------------------||

Guitar 1        
C#||------------------|
G#||------------------|
 E||------------------|
 B||--0-0-0--0-0-0----| 
F#||--0-0-0--0-0-0----|
 B||--0-0-0--0-0-0----|


            
            
Suggest correction
Creating personal tab
Creating personal tab
You can edit any tab online and save it as your Personal.

You can edit, replace or remove any tab part or add personal notes – all changes will be seen only by you.

Personal tabs can be accessed anytime from any device, even offline.
Learn more »
comments
print report bad tab
3 comments total.
0 reply
guitar4life97 109 Nov 20, 2009 12:24 PM

THE INTRO, VERSE, AND CHORUS IS...

Db--------------------------------------
Ab--------------------------------------
E---------------------------------------
B--0-0-0--0-0-0--10--0-0-0--0-0-12-7-10-
Gb-0-0-0--0-0-0--10--0-0-0--0-0-12-7-10-
B--0-0-0--0-0-0--10--0-0-0--0-0-12-7-10-

and the bridge/solo is.....

Db-------------------------
Ab-15---17---18---20---22--
E--17b--19b--20b--22b--24b-
B--------------------------
Gb-------------------------
B--------------------------

Db-------------15-17-18\17/18\17-15~---
Ab-15~-15-17-18------------------------
E--------------------------------------
B--------------------------------------
Gb-------------------------------------
B--------------------------------------

Db-----------------15-17-18-17-15------
Ab---------15-17-18--------------17-18~
E--15-17-18----------------------------
B--------------------------------------
Gb-------------------------------------
B--------------------------------------

0 reply
kaulthelegend 162 Jan 02, 2010 01:00 PM

Intro And Verse Is Wright But The Solo Is Wrong Ben Dosent Play A 24 Fretted Guitar ( as you proably know i have a skillet tab book )

0 reply
kalemlalonde 10 Jan 09, 2010 07:05 AM

im taking to guitar4 life

guest
You may want to rate the tab now too:
select rating
Wanna post a correction for this tab? Suggest correction