Oops, an error
Loading. Please wait.
We have Chord Pro version of Stars.
It's the closest thing you can get to the original song and it has interactive parts. Check out the tab »
×

Stars chords

version 2
version 2

Whole song

  • Specific, corrected chords true to the key, labele... Show more
  • Original chords by Romantic485. Added F# in the repeating riff in the verse.
  • The version was taken of an acoustic cover in addi... Show more

Interactive

by Skillet
22,411 views 270 this week
6 commentsread comments
1 2 3 4 5
x 28
add to favorites
×
Save as Personal and add changes to this tab that will be seen only by you. Learn more ›
×
You can save this tab as Personal to edit and correct it or add notes. All changes will be seen only by you. Learn more »
launch autoscroll
font size
0
reset
transpose
0
reset
simplify chords
display chords
guitar tuner
edit
Autoscroll
slow
fast
+/-
esc
set tempo
stop
About this tab version
Specific, corrected chords true to the key, labeled and timed sections, riffs, strumming pattern. Was this info helpful? Yes No
Strumming Is this strumming pattern correct? Yes No
Whole song (recommended) 150 bpm
1
&
2
&
Listen
CAPO 4 for ease of playing!


G/D - xx0433/x55433
^ is basically a prolongation of the D chord.
The electronic D note is pretty pervasive over the Em chords;
you can play either Em7 or Em where indicated.


[RIFFS] (no capo) All synths are one octave lower than recording.

Intro/Verse 1/Interlude 1 Synth

e|-----------------|
B|-------5p4-------|
G|-----4-------6p4-|
D|---4-------4-----|
A|-----------------|
E|-----------------|
   1 + 2 + 3 + 4 +

(p = pull-off)


Verse 2

e|---------|-----------------|-----------------|
B|---------|-7-------5-------|-4---------------|
G|-------4-|-------4-------4-|-----------------|
D|---------|-----------------|-----------------|
A|---------|-----------------|-----------------|
E|---------|-----------------|-----------------|
   3 + 4 +   1 + 2 + 3 + 4 +   1


Interlude 2 Synth

e|-----------------|-----------------|-----------------|-----------------|
B|-----------------|-5---4-------4---|-----4-------4---|-----4-----------|
G|-------------4---|---------6-------|-----------------|---------6---4---|
D|-----------6---6-|-----------------|-----------------|-----------------|
A|-----------------|-----------------|-----------------|-----------------|
E|-----------------|-----------------|-----------------|-----------------|
   1 + 2 + 3 + 4 +   1 + 2 + 3 + 4 +   1 + 2 + 3 + 4 +   1 + 2 + 3 + 4 + 

e|-----------------|-----------------|-----------------|-----------------|
B|-----------------|-5---4-------4---|-----4-------4---|-----4-----------|
G|-------------4---|---------6-------|-----------------|---------6---4---|
D|-6---------6---6-|-----------------|-----------------|-----------------|
A|-----------------|-----------------|-----------------|-----------------|
E|-----------------|-----------------|-----------------|-----------------|
   1 + 2 + 3 + 4 +   1 + 2 + 3 + 4 +   1 + 2 + 3 + 4 +   1 + 2 + 3 + 4 + 


Bridge Synth

e|-----------------|-----------------|-----------------|-----------------|
B|-----------------|-5---4-------4---|-----4-------4---|-----4-----------|
G|-4-----------4---|---------6-------|-----------------|---------6---4---|
D|-----------6---6-|-----------------|-----------------|-----------------|
A|-----------------|-----------------|-----------------|-----------------|
E|-----------------|-----------------|-----------------|-----------------|
   1 + 2 + 3 + 4 +   1 + 2 + 3 + 4 +   1 + 2 + 3 + 4 +   1 + 2 + 3 + 4 + 

e|-----------------|-----------------|-----------------|-----------------|
B|-----------------|-5---4-------4---|-----4-------4---|-----4-----------|
G|-------------4---|---------6-------|-----------------|---------6---4---| x2
D|-6---------6---6-|-----------------|-----------------|-----------------|
A|-----------------|-----------------|-----------------|-----------------|
E|-----------------|-----------------|-----------------|-----------------|
   1 + 2 + 3 + 4 +   1 + 2 + 3 + 4 +   1 + 2 + 3 + 4 +   1 + 2 + 3 + 4 + 



ORDER: I V1 C1 INT1 V2 C2 C3 INT2 B FC1 FC2 O


[INTRO]
Em7 | Em7 D | G | |
Em7 | Em7 D | G | |


[VERSE 1]
Em7                      D       G
    You spoke a word and life be - gan
Em7                      D         G
    Told oceans where to start and where to end
Em7                   D       G        
    You set in motion time and space

                  Em7                  D    G
    But still You come and you call to me by name
              Em                   D    G
    Still You come and you call to me by name


[CHORUS 1]
                   Cadd9         G
If You can hold the     stars in place,
                G/D       D
You can hold my heart the same
           Cadd9 G
Whenever I fall away
           G/D      D
Whenever I start to break
   Cmaj9         Em7                Dsus4
So here I am, lif - ting up my heart
       D                 Em
To the One who holds the stars


[INTERLUDE 1]
( Em ) | Em D | G | |


[VERSE 2]
Em                          D      G
    The deepest depths, the darkest nights
Em                        D       G
    Can't separate, can't keep me from your side
Em                    D     G
    I get so lost, forget my way

                  Em                    D     G
    But still You love and You don't forget my name


[CHORUS 2]
                   Cadd9         G
If you can hold the     stars in place
                G/D       D
You can hold my heart the same
           Cadd9 G
Whenever I fall away
           G/D      D
Whenever I start to break
   Cmaj9         Em7                Dsus4
So here I am, lif - ting up my heart...


[CHORUS 3]
                   Cadd9       G
If you can calm the     raging sea
                G/D         D
You can calm the   storm in me
                 Cadd9 G
You're never too far  away
               G/D    D
You never show up too late
   Cadd9         Em7                Dsus4
So here I am, lif - ting up my heart
       D                 Em7
To the one who holds the stars


[INTERLUDE 2]
Em7 | Em7 D | G | |
Em7 | Em7 D | G | |


[BRIDGE]
     Em              D  G
Your love has called my name
                  Em7
What do I have to fear?
          D       G
What do I have to fear?
     Em              D  G
Your love has called my name
                  Em
What do I have to fear?
          D       G
What do I have to fear?


[FINAL CHORUS 1]
(starts synth only)
                   Cadd9         G
If you can hold the     stars in place
                G/D       D
You can hold my heart the same
           Cadd9 G
Whenever I fall away
           G/D      D
Whenever I start to break

(palm muting)
   Cmaj9         Em7                G/D
So here I am, lif - ting up my heart... (lifting up my heart)


[FINAL CHORUS 2]
                   Cadd9       G
If you can calm the     raging sea
                G/D         D
You can calm the   storm in me
                 Cadd9 G
You're never too far  away
               G/D    D
You never show up too late
   Cadd9         Em7                Dsus4
So here I am, lif - ting up my heart
       D                 C
To the one who holds the stars


[OUTRO]
( C ) | Em7 | D

                             n.c.
You're the one who holds the stars

            
            
Suggest correction
Creating personal tab
Creating personal tab
You can edit any tab online and save it as your Personal.

You can edit, replace or remove any tab part or add personal notes – all changes will be seen only by you.

Personal tabs can be accessed anytime from any device, even offline.
Learn more »
comments
print report bad tab
6 comments total. Showing first comments.
+2 reply
5667893111 10 Jan 27, 2017 11:26 AM

Perfect!!!

+1 reply
jude4gb1 20 Feb 18, 2017 10:22 PM

great job mi amigo

+1 reply
cemerzian 12 Mar 26, 2017 01:23 PM

Great Job.

guest
You may want to rate the tab now too:
select rating
Wanna post a correction for this tab? Suggest correction