Oops, an error
Loading. Please wait.

The Resistance Bass Tab

172 views 24 this week
no commentswrite comment
1 2 3 4 5
2 more votes to show rating
add to favorites
launch autoscroll
font size
0
reset
guitar tuner
Autoscroll
slow
fast
+/-
esc
set tempo
stop
Help us to improve Ultimate-Guitar.com Take our survey!
×
Author
Difficulty
Tuning
novice
D A D G B E
[Intro]

G|---------------------------------------------------------------------------|
D|---------------------------------------------------------------------------|
A|---------------------------------------------------------------------------|
D|-7-7--5-5--3-3--2-2--0-0--2-2--3-3--0-0------------------------------------|

G|---------------------------------------------------------------------------|
D|---------------------------------------------------------------------------|
A|-----------3---------------------------------------------------------------|
D|-0--- 0-3-0---0--0 2-3-0-5-3-2-0-------------------------------------------|


[Verse] D

G|---------------------------------------------------------------------------|
D|---------------------------------------------------------------------------|
A|---------------------------------------------------------------------------|
D|-0-----0------0------12/0--------------------------------------------------|

G|---------------------------------------------------------------------------|
D|---------------------------------------------------------------------------|
A|---------------------------------------------------------------------------| 
D|-0---0---0-2-5-3-2-0-------------------------------------------------------|


[Chorus]

G|--------------------------------------------------------------------------------|
D|--------------------------------------------------------------------------------|
A|-------------------3-3-3-3--------------------------------------------3-3-3-3---|
D|-0-0-0-0--8-8-8-8-----------5-5-5-5-------0-0-0-0---8-8-8-8--3-3-3-3------------|


[Bridge]
@ 2:16
G|---------------------------------------------------------------------------|
D|---------------------------------------------------------------------------|
A|---------------------------------------------------------------------------|
D|-5-5-5-5-5-5-5-5--7-7-7-7-7-7-7-7------------------------------------------|

[Outro]

(Lots of open D that follows the drum hits and the rhythm guitar.)
G|--------------------|--|-----------------------------------------------------|
D|--------------------|--|-3-2-3-7-3-2-----------------------------------------|
A|------------------3-|X3|-----------------------------------------------------|
D|-0--0--3-0--0--0-3--|--|-----------------------------------------------------|


************************************
Enjoy!
Skillet rocks!
Suggest correction
Give kudos to tab author, rate the tab!
1 2 3 4 5
comments
print report bad tab
guest
You may want to rate the tab now too:
select rating
Wanna post a correction for this tab? Suggest correction