Oops, an error
Loading. Please wait.

The Resistance Tab

version 1
version 1

Whole song

  • Lead guitar tabs coming soon. Original song played... Show more
892 views 96 this week
4 commentsread comments
1 2 3 4 5
x 4
add to favorites
launch autoscroll
font size
0
reset
how to read this tab
guitar tuner
Autoscroll
slow
fast
+/-
esc
set tempo
stop
Help us to improve Ultimate-Guitar.com Take our survey!
×
Author
Difficulty
Tuning
novice
D A D G B E
About this tab version
Lead guitar tabs coming soon. Original song played in Drop C tuning, tab in Drop D to make it easier to play. Was this info helpful? Yes No
Note: The CD recording is played in Drop C tuning, but for ease of playing it has been tabbed in Drop D. To
play it in Drop C, simply increase the fret numbers by 2. and play the 10 fret as 0 fret. Enjoy

Lead guitar tabs coming soon

[Intro]
e|---|-------|
B|---|-------|
G|---|-------|
D|-0-|-0-0-0-|
A|-0-|-0-0-0-|
D|-0-|-0-0-0-|
       * * *

e|---------|--------|---------|----------------|
B|---------|--------|---------|----------------|
G|---------|-----5--|---------|--------------5-|
D|-0-X-X-X-|--3--5--|-0-X-X-X-|--0-3-0-3-0-3-5-|x2
A|-0-X-X-X-|--3--3--|-0-X-X-X-|--0-3-0-3-0-3-3-|
D|-0-X-X-X-|--3-----|-0-X-X-X-|--0-3-0-3-0-3---|

[Verse]
e|-----|-----|---------|-----|-----|-----|-----|-----|
B|-----|-----|---------|-----|-----|-----|-----|-----|
G|-----|-----|---------|-----|-----|-----|-----|-----|
D|--7--|--7--|--7------|--7--|--7--|--7--|--7--|--7--|
A|--5--|--5--|--5------|--5--|--5--|--5--|--5--|--5--|
D|--0--|--0--|--0-12\--|--0--|--0--|--0--|--0--|--0--|

[Chorus]
e|---------|---------|---------|-------------|---------|---------|---------|-------------|
B|---------|---------|---------|-------------|---------|---------|---------|-------------|
G|---------|---------|---------|-------------|---------|---------|---------|-------------|
D|-0-0-0-0-|-8-8-8-8-|-5-5-5-5-|-10-10-10-10-|-0-0-0-0-|-8-8-8-8-|-5-5-5-5-|-10-10-10-10-|
A|-0-0-0-0-|-8-8-8-8-|-5-5-5-5-|-10-10-10-10-|-0-0-0-0-|-8-8-8-8-|-5-5-5-5-|-10-10-10-10-|
D|-0-0-0-0-|-8-8-8-8-|-5-5-5-5-|-10-10-10-10-|-0-0-0-0-|-8-8-8-8-|-5-5-5-5-|-10-10-10-10-|

e|---------|---------|---------|-------------|---------|---------|----------|
B|---------|---------|---------|-------------|---------|---------|----------|
G|---------|---------|---------|-------------|---------|---------|----------|
D|-0-0-0-0-|-8-8-8-8-|-3-3-3-3-|-10-10-10-10-|-0-0-0-0-|-8-8-8-8-|-5-5-5-5--|
A|-0-0-0-0-|-8-8-8-8-|-3-3-3-3-|-10-10-10-10-|-0-0-0-0-|-8-8-8-8-|-5-5-5-5--|
D|-0-0-0-0-|-8-8-8-8-|-3-3-3-3-|-10-10-10-10-|-0-0-0-0-|-8-8-8-8-|-5-5-5-5--|

[Link]
e|---------|--------|---------|----------------|
B|---------|--------|---------|----------------|
G|---------|-----5--|---------|--------------5-|
D|-0-X-X-X-|--3--5--|-0-X-X-X-|--0-3-0-3-0-3-5-|
A|-0-X-X-X-|--3--3--|-0-X-X-X-|--0-3-0-3-0-3-3-|
D|-0-X-X-X-|--3-----|-0-X-X-X-|--0-3-0-3-0-3---|

[Verse] (no guitar until 1:25)
e|-----|-----|
B|-----|-----|
G|-----|-----|
D|--7--|--7--|
A|--5--|--5--|
D|--0--|--0--|

[Chorus]
e|---------|---------|---------|-------------|---------|---------|---------|-------------|
B|---------|---------|---------|-------------|---------|---------|---------|-------------|
G|---------|---------|---------|-------------|---------|---------|---------|-------------|
D|-0-0-0-0-|-8-8-8-8-|-5-5-5-5-|-10-10-10-10-|-0-0-0-0-|-8-8-8-8-|-5-5-5-5-|-10-10-10-10-|
A|-0-0-0-0-|-8-8-8-8-|-5-5-5-5-|-10-10-10-10-|-0-0-0-0-|-8-8-8-8-|-5-5-5-5-|-10-10-10-10-|
D|-0-0-0-0-|-8-8-8-8-|-5-5-5-5-|-10-10-10-10-|-0-0-0-0-|-8-8-8-8-|-5-5-5-5-|-10-10-10-10-|

e|---------|---------|---------|-------------|---------|---------|---------|---------| 
B|---------|---------|---------|-------------|---------|---------|---------|---------|
G|---------|---------|---------|-------------|---------|---------|---------|---------|
D|-0-0-0-0-|-8-8-8-8-|-3-3-3-3-|-10-10-10-10-|-0-0-0-0-|-8-8-8-8-|-5-5-5-5-|-5-5-5-5-|
A|-0-0-0-0-|-8-8-8-8-|-3-3-3-3-|-10-10-10-10-|-0-0-0-0-|-8-8-8-8-|-5-5-5-5-|-5-5-5-5-|
D|-0-0-0-0-|-8-8-8-8-|-3-3-3-3-|-10-10-10-10-|-0-0-0-0-|-8-8-8-8-|-5-5-5-5-|-5-5-5-5-|

[Bridge]
e|---------------------------------|--------------------------------------------------|
B|---------------------------------|--------------------------------------------------|
G|---------------------------------|--------------------------------------------------|
D|-8-8-8-8-8-8-8-8-8-8-8-8-8-8-8-8-|-10-10-10-10-10-10-10-10-10-10-10-10-10-10-10-10--|x2
A|-8-8-8-8-8-8-8-8-8-8-8-8-8-8-8-8-|-10-10-10-10-10-10-10-10-10-10-10-10-10-10-10-10--|
D|-8-8-8-8-8-8-8-8-8-8-8-8-8-8-8-8-|-10-10-10-10-10-10-10-10-10-10-10-10-10-10-10-10--|

e|---------------------------------|----------------------------------|
B|---------------------------------|----------------------------------|
G|---------------------------------|----------------------------------|
D|-5-5-5-5-5-5-5-5-5-5-5-5-5-5-5-5-|-7-7-7-7-7-7-7-7-7-7-7-7-7-7-7-7--|
A|-5-5-5-5-5-5-5-5-5-5-5-5-5-5-5-5-|-7-7-7-7-7-7-7-7-7-7-7-7-7-7-7-7--|
D|-5-5-5-5-5-5-5-5-5-5-5-5-5-5-5-5-|-7-7-7-7-7-7-7-7-7-7-7-7-7-7-7-7--|

[Chorus]
e|---------|---------|---------|-------------|---------|---------|---------|-------------|
B|---------|---------|---------|-------------|---------|---------|---------|-------------|
G|---------|---------|---------|-------------|---------|---------|---------|-------------|
D|-0-0-0-0-|-8-8-8-8-|-5-5-5-5-|-10-10-10-10-|-0-0-0-0-|-8-8-8-8-|-5-5-5-5-|-10-10-10-10-|
A|-0-0-0-0-|-8-8-8-8-|-5-5-5-5-|-10-10-10-10-|-0-0-0-0-|-8-8-8-8-|-5-5-5-5-|-10-10-10-10-|
D|-0-0-0-0-|-8-8-8-8-|-5-5-5-5-|-10-10-10-10-|-0-0-0-0-|-8-8-8-8-|-5-5-5-5-|-10-10-10-10-|

e|---------|---------|---------|-------------|---------|---------|---------|---------| 
B|---------|---------|---------|-------------|---------|---------|---------|---------|
G|---------|---------|---------|-------------|---------|---------|---------|---------|
D|-0-0-0-0-|-8-8-8-8-|-3-3-3-3-|-10-10-10-10-|-0-0-0-0-|-8-8-8-8-|-5-5-5-5-|-5-5-5-5-|
A|-0-0-0-0-|-8-8-8-8-|-3-3-3-3-|-10-10-10-10-|-0-0-0-0-|-8-8-8-8-|-5-5-5-5-|-5-5-5-5-|
D|-0-0-0-0-|-8-8-8-8-|-3-3-3-3-|-10-10-10-10-|-0-0-0-0-|-8-8-8-8-|-5-5-5-5-|-5-5-5-5-|

[Outro]
e|---------|--------|---------|----------------|
B|---------|--------|---------|----------------|
G|---------|-----5--|---------|--------------5-|
D|-0-X-X-X-|--3--5--|-0-X-X-X-|--0-3-0-3-0-3-5-|x2
A|-0-X-X-X-|--3--3--|-0-X-X-X-|--0-3-0-3-0-3-3-|
D|-0-X-X-X-|--3-----|-0-X-X-X-|--0-3-0-3-0-3---|

e|---------------|
B|---------------|
G|-------------5-|
D|-0-3-0-3-0-3-5-|
A|-0-3-0-3-0-3-3-|
D|-0-3-0-3-0-3---|

e|---------------|---------------|---------------|-----------------|
B|---------------|---------------|---------------|-----------------|
G|-----------5---|-----------5---|-----------5---|-----------------|
D|-3-0-3-0-0-5-0-|-3-0-3-0-0-5-0-|-3-0-3-0-0-5-0-|--------10-------|
A|-3-0-3-0-0-3-0-|-3-0-3-0-0-3-0-|-3-0-3-0-0-3-0-|--8-7-8----8-7---|
D|-3-0-3-0-0---0-|-3-0-3-0-0---0-|-3-0-3-0-0---0-|-----------------|

e|---------------|-----------------------------|----------|
B|---------------|-----------------------------|----------|
G|-----------5---|-----------------------------|----------|
D|-3-0-3-0-0-5-0-|-12-12-12-12-10-10-10-10-9-9-|-0-0-10\3-|
A|-3-0-3-0-0-3-0-|-12-12-12-12-10-10-10-10-9-9-|-0-0-10\3-|
D|-3-0-3-0-0---0-|-12-12-12-12-10-10-10-10-9-9-|-0-0-10\3-|

e|---------------|---------------|-----------------|-----------------------------|----------|
B|---------------|---------------|-----------------|-----------------------------|----------|
G|-----------5---|-----------5---|-----------------|-----------------------------|----------|
D|-3-0-3-0-0-5-0-|-3-0-3-0-0-5-0-|--------10-------|-12-12-12-12-10-10-10-10-9-9-|-0-0-10\3-|
A|-3-0-3-0-0-3-0-|-3-0-3-0-0-3-0-|--8-7-8----8-7---|-12-12-12-12-10-10-10-10-9-9-|-0-0-10\3-|
D|-3-0-3-0-0---0-|-3-0-3-0-0---0-|-----------------|-12-12-12-12-10-10-10-10-9-9-|-0-0-10\3-|

e|---------------|---------------|---------------|---------------|
B|---------------|---------------|---------------|---------------|
G|-----------5---|-----------5---|-----------5---|-----------5---|
D|-3-0-3-0-0-5-0-|-3-0-3-0-0-5-0-|-3-0-3-0-0-5-0-|-3-0-3-0-0-5-0-|x2
A|-3-0-3-0-0-3-0-|-3-0-3-0-0-3-0-|-3-0-3-0-0-3-0-|-3-0-3-0-0-3-0-|
D|-3-0-3-0-0---0-|-3-0-3-0-0---0-|-3-0-3-0-0---0-|-3-0-3-0-0---0-|

e|-----------------------------|----------|
B|-----------------------------|----------|
G|-----------------------------|----------|
D|-12-12-12-12-10-10-10-10-9-9-|-0-0-10\3-|x2
A|-12-12-12-12-10-10-10-10-9-9-|-0-0-10\3-|
D|-12-12-12-12-10-10-10-10-9-9-|-0-0-10\3-|

e|-------------|
B|-------------|
G|-------------|
D|-0-0-X-X-0-0-|
A|-0-0-X-X-0-0-|
D|-0-0-X-X-0-0-|

************************************

| \  Slide down
| X  Dead note

************************************
Suggest correction
comments
print report bad tab
4 comments total. Showing first comments.
0 reply
murallafacudiaz 249 Dec 22, 2016 01:53 AM

Errr no, they play it in Drop C live. Drop D is on record. And there are a few many things that are pretty off, like the verse (it's all open Ds), the intro/outro are also kinda off... You might wanna check some videos of them playing it live

0 reply
notgonnadie 445 Dec 26, 2016 01:42 AM, edited at 01:42 am

Hey, thanks for commenting! Firstly, Skillet does play it in Drop C on the record, Seth said so on Twitter. They also play it in Drop C live, but a whole step lower, so it would be similar to this tab. About the verses, I hear a chord an octave higher than open Ds. I haven't really seen them play it live, they might play it differently, but IMO it sounds better when it's higher, at least for the recording. I look into the intro/outro as well. Thanks for your feedback once again, and have a nice day! :)

0 reply
murallafacudiaz 249 Dec 26, 2016 01:59 AM

Hey! I've been playing this song on my own and I'd like to suggest a few changes in the tab, if you don't mind.

[Intro]
e|---|-------|
B|---|-------|
G|---|-------|
D|-0-|-0-0-0-|
A|-0-|-0-0-0-| (all opens)
D|-0-|-0-0-0-|


e|--------|--------------|--------|----------------|
B|--------|--------------|--------|----------------|
G|--------|------------5-|--------|--------------5-|
D|-0-X-X--|--0-3-0-5-0-5-|-0-X-X--|--0-3-0-3-5-0-5-|x2
A|-0-X-X--|--0-3-0-5-0-3-|-0-X-X--|--0-3-0-3-5-0-3-|
D|-0-X-X--|--0-3-0-5-0---|-0-X-X--|--0-3-0-3-5-0---|

Verse all opens, chorus instead of 10s I play the 3rd

for that jam at the end I play it like this (and I'm pretty sure they play it live like this too, but in Drop C)

e|---------------|---------------|--------------|-----------------|
B|---------------|---------------|--------------|-----------------|
G|-----------5---|-----------5---|-----------5--|--------5--------|
D|-3-0-3-5-0-5-0-|-3-0-3-5-0-5-0-|-3-0-3-5-0-5--|--3-2-3---3-2----|
A|-3-0-3-5-0-3-0-|-3-0-3-5-0-3-0-|-3-0-3-5-0-3--|-----------------|
D|-3-0-3-5-0---0-|-3-0-3-5-0---0-|-3-0-3-5-0----|-----------------|
* * * (actually this part
plays it only Seth)

e|--------------|-----------------------------------|
B|--------------|-----------------------------------|
G|-----------5--|-----------------------------------|
D|-3-0-3-5-0-5--|--7-7-7-7-5-5-5-4-4----------------|
A|-3-0-3-5-0-3--|--5-5-5-5-3-3-3-2-2-------5-0-3-5--|
D|-3-0-3-5-0----|--------------------0-3-0----------|

Hope you accept my corrections, have a nice day and merry christmas!

guest
You may want to rate the tab now too:
select rating
Wanna post a correction for this tab? Suggest correction