Oops, an error
Loading. Please wait.

The Resistance Tab

version 1
version 1

Whole song

  • Lead guitar tabs coming soon. Original song played... Show more
100 views 30 this week
no commentswrite comment
1 2 3 4 5
2 more votes to show rating
add to favorites
launch autoscroll
font size
0
reset
how to read this tab
guitar tuner
Autoscroll
slow
fast
+/-
esc
set tempo
stop
Help us to improve Ultimate-Guitar.com Take our survey!
×
Author
Difficulty
Tuning
novice
D A D G B E
About this tab version
Lead guitar tabs coming soon. Original song played in Drop C tuning, tab in Drop D to make it easier to play. Was this info helpful? Yes No
Note: The CD recording is played in Drop C tuning, but for ease of playing it has been tabbed in Drop D. To
play it in Drop C, simply increase the fret numbers by 2. and play the 10 fret as 0 fret. Enjoy

Lead guitar tabs coming soon

[Intro]
e|---|-------|
B|---|-------|
G|---|-------|
D|-0-|-0-0-0-|
A|-0-|-0-0-0-|
D|-0-|-0-0-0-|
       * * *

e|---------|--------|---------|----------------|
B|---------|--------|---------|----------------|
G|---------|-----5--|---------|--------------5-|
D|-0-X-X-X-|--3--5--|-0-X-X-X-|--0-3-0-3-0-3-5-|x2
A|-0-X-X-X-|--3--3--|-0-X-X-X-|--0-3-0-3-0-3-3-|
D|-0-X-X-X-|--3-----|-0-X-X-X-|--0-3-0-3-0-3---|

[Verse]
e|-----|-----|---------|-----|-----|-----|-----|-----|
B|-----|-----|---------|-----|-----|-----|-----|-----|
G|-----|-----|---------|-----|-----|-----|-----|-----|
D|--7--|--7--|--7------|--7--|--7--|--7--|--7--|--7--|
A|--5--|--5--|--5------|--5--|--5--|--5--|--5--|--5--|
D|--0--|--0--|--0-12\--|--0--|--0--|--0--|--0--|--0--|

[Chorus]
e|---------|---------|---------|-------------|---------|---------|---------|-------------|
B|---------|---------|---------|-------------|---------|---------|---------|-------------|
G|---------|---------|---------|-------------|---------|---------|---------|-------------|
D|-0-0-0-0-|-8-8-8-8-|-5-5-5-5-|-10-10-10-10-|-0-0-0-0-|-8-8-8-8-|-5-5-5-5-|-10-10-10-10-|
A|-0-0-0-0-|-8-8-8-8-|-5-5-5-5-|-10-10-10-10-|-0-0-0-0-|-8-8-8-8-|-5-5-5-5-|-10-10-10-10-|
D|-0-0-0-0-|-8-8-8-8-|-5-5-5-5-|-10-10-10-10-|-0-0-0-0-|-8-8-8-8-|-5-5-5-5-|-10-10-10-10-|

e|---------|---------|---------|-------------|---------|---------|----------|
B|---------|---------|---------|-------------|---------|---------|----------|
G|---------|---------|---------|-------------|---------|---------|----------|
D|-0-0-0-0-|-8-8-8-8-|-3-3-3-3-|-10-10-10-10-|-0-0-0-0-|-8-8-8-8-|-5-5-5-5--|
A|-0-0-0-0-|-8-8-8-8-|-3-3-3-3-|-10-10-10-10-|-0-0-0-0-|-8-8-8-8-|-5-5-5-5--|
D|-0-0-0-0-|-8-8-8-8-|-3-3-3-3-|-10-10-10-10-|-0-0-0-0-|-8-8-8-8-|-5-5-5-5--|

[Link]
e|---------|--------|---------|----------------|
B|---------|--------|---------|----------------|
G|---------|-----5--|---------|--------------5-|
D|-0-X-X-X-|--3--5--|-0-X-X-X-|--0-3-0-3-0-3-5-|
A|-0-X-X-X-|--3--3--|-0-X-X-X-|--0-3-0-3-0-3-3-|
D|-0-X-X-X-|--3-----|-0-X-X-X-|--0-3-0-3-0-3---|

[Verse] (no guitar until 1:25)
e|-----|-----|
B|-----|-----|
G|-----|-----|
D|--7--|--7--|
A|--5--|--5--|
D|--0--|--0--|

[Chorus]
e|---------|---------|---------|-------------|---------|---------|---------|-------------|
B|---------|---------|---------|-------------|---------|---------|---------|-------------|
G|---------|---------|---------|-------------|---------|---------|---------|-------------|
D|-0-0-0-0-|-8-8-8-8-|-5-5-5-5-|-10-10-10-10-|-0-0-0-0-|-8-8-8-8-|-5-5-5-5-|-10-10-10-10-|
A|-0-0-0-0-|-8-8-8-8-|-5-5-5-5-|-10-10-10-10-|-0-0-0-0-|-8-8-8-8-|-5-5-5-5-|-10-10-10-10-|
D|-0-0-0-0-|-8-8-8-8-|-5-5-5-5-|-10-10-10-10-|-0-0-0-0-|-8-8-8-8-|-5-5-5-5-|-10-10-10-10-|

e|---------|---------|---------|-------------|---------|---------|---------|---------| 
B|---------|---------|---------|-------------|---------|---------|---------|---------|
G|---------|---------|---------|-------------|---------|---------|---------|---------|
D|-0-0-0-0-|-8-8-8-8-|-3-3-3-3-|-10-10-10-10-|-0-0-0-0-|-8-8-8-8-|-5-5-5-5-|-5-5-5-5-|
A|-0-0-0-0-|-8-8-8-8-|-3-3-3-3-|-10-10-10-10-|-0-0-0-0-|-8-8-8-8-|-5-5-5-5-|-5-5-5-5-|
D|-0-0-0-0-|-8-8-8-8-|-3-3-3-3-|-10-10-10-10-|-0-0-0-0-|-8-8-8-8-|-5-5-5-5-|-5-5-5-5-|

[Bridge]
e|---------------------------------|--------------------------------------------------|
B|---------------------------------|--------------------------------------------------|
G|---------------------------------|--------------------------------------------------|
D|-8-8-8-8-8-8-8-8-8-8-8-8-8-8-8-8-|-10-10-10-10-10-10-10-10-10-10-10-10-10-10-10-10--|x2
A|-8-8-8-8-8-8-8-8-8-8-8-8-8-8-8-8-|-10-10-10-10-10-10-10-10-10-10-10-10-10-10-10-10--|
D|-8-8-8-8-8-8-8-8-8-8-8-8-8-8-8-8-|-10-10-10-10-10-10-10-10-10-10-10-10-10-10-10-10--|

e|---------------------------------|----------------------------------|
B|---------------------------------|----------------------------------|
G|---------------------------------|----------------------------------|
D|-5-5-5-5-5-5-5-5-5-5-5-5-5-5-5-5-|-7-7-7-7-7-7-7-7-7-7-7-7-7-7-7-7--|
A|-5-5-5-5-5-5-5-5-5-5-5-5-5-5-5-5-|-7-7-7-7-7-7-7-7-7-7-7-7-7-7-7-7--|
D|-5-5-5-5-5-5-5-5-5-5-5-5-5-5-5-5-|-7-7-7-7-7-7-7-7-7-7-7-7-7-7-7-7--|

[Chorus]
e|---------|---------|---------|-------------|---------|---------|---------|-------------|
B|---------|---------|---------|-------------|---------|---------|---------|-------------|
G|---------|---------|---------|-------------|---------|---------|---------|-------------|
D|-0-0-0-0-|-8-8-8-8-|-5-5-5-5-|-10-10-10-10-|-0-0-0-0-|-8-8-8-8-|-5-5-5-5-|-10-10-10-10-|
A|-0-0-0-0-|-8-8-8-8-|-5-5-5-5-|-10-10-10-10-|-0-0-0-0-|-8-8-8-8-|-5-5-5-5-|-10-10-10-10-|
D|-0-0-0-0-|-8-8-8-8-|-5-5-5-5-|-10-10-10-10-|-0-0-0-0-|-8-8-8-8-|-5-5-5-5-|-10-10-10-10-|

e|---------|---------|---------|-------------|---------|---------|---------|---------| 
B|---------|---------|---------|-------------|---------|---------|---------|---------|
G|---------|---------|---------|-------------|---------|---------|---------|---------|
D|-0-0-0-0-|-8-8-8-8-|-3-3-3-3-|-10-10-10-10-|-0-0-0-0-|-8-8-8-8-|-5-5-5-5-|-5-5-5-5-|
A|-0-0-0-0-|-8-8-8-8-|-3-3-3-3-|-10-10-10-10-|-0-0-0-0-|-8-8-8-8-|-5-5-5-5-|-5-5-5-5-|
D|-0-0-0-0-|-8-8-8-8-|-3-3-3-3-|-10-10-10-10-|-0-0-0-0-|-8-8-8-8-|-5-5-5-5-|-5-5-5-5-|

[Outro]
e|---------|--------|---------|----------------|
B|---------|--------|---------|----------------|
G|---------|-----5--|---------|--------------5-|
D|-0-X-X-X-|--3--5--|-0-X-X-X-|--0-3-0-3-0-3-5-|x2
A|-0-X-X-X-|--3--3--|-0-X-X-X-|--0-3-0-3-0-3-3-|
D|-0-X-X-X-|--3-----|-0-X-X-X-|--0-3-0-3-0-3---|

e|---------------|
B|---------------|
G|-------------5-|
D|-0-3-0-3-0-3-5-|
A|-0-3-0-3-0-3-3-|
D|-0-3-0-3-0-3---|

e|---------------|---------------|---------------|-----------------|
B|---------------|---------------|---------------|-----------------|
G|-----------5---|-----------5---|-----------5---|-----------------|
D|-3-0-3-0-0-5-0-|-3-0-3-0-0-5-0-|-3-0-3-0-0-5-0-|--------10-------|
A|-3-0-3-0-0-3-0-|-3-0-3-0-0-3-0-|-3-0-3-0-0-3-0-|--8-7-8----8-7---|
D|-3-0-3-0-0---0-|-3-0-3-0-0---0-|-3-0-3-0-0---0-|-----------------|

e|---------------|-----------------------------|----------|
B|---------------|-----------------------------|----------|
G|-----------5---|-----------------------------|----------|
D|-3-0-3-0-0-5-0-|-12-12-12-12-10-10-10-10-9-9-|-0-0-10\3-|
A|-3-0-3-0-0-3-0-|-12-12-12-12-10-10-10-10-9-9-|-0-0-10\3-|
D|-3-0-3-0-0---0-|-12-12-12-12-10-10-10-10-9-9-|-0-0-10\3-|

e|---------------|---------------|-----------------|-----------------------------|----------|
B|---------------|---------------|-----------------|-----------------------------|----------|
G|-----------5---|-----------5---|-----------------|-----------------------------|----------|
D|-3-0-3-0-0-5-0-|-3-0-3-0-0-5-0-|--------10-------|-12-12-12-12-10-10-10-10-9-9-|-0-0-10\3-|
A|-3-0-3-0-0-3-0-|-3-0-3-0-0-3-0-|--8-7-8----8-7---|-12-12-12-12-10-10-10-10-9-9-|-0-0-10\3-|
D|-3-0-3-0-0---0-|-3-0-3-0-0---0-|-----------------|-12-12-12-12-10-10-10-10-9-9-|-0-0-10\3-|

e|---------------|---------------|---------------|---------------|
B|---------------|---------------|---------------|---------------|
G|-----------5---|-----------5---|-----------5---|-----------5---|
D|-3-0-3-0-0-5-0-|-3-0-3-0-0-5-0-|-3-0-3-0-0-5-0-|-3-0-3-0-0-5-0-|x2
A|-3-0-3-0-0-3-0-|-3-0-3-0-0-3-0-|-3-0-3-0-0-3-0-|-3-0-3-0-0-3-0-|
D|-3-0-3-0-0---0-|-3-0-3-0-0---0-|-3-0-3-0-0---0-|-3-0-3-0-0---0-|

e|-----------------------------|----------|
B|-----------------------------|----------|
G|-----------------------------|----------|
D|-12-12-12-12-10-10-10-10-9-9-|-0-0-10\3-|x2
A|-12-12-12-12-10-10-10-10-9-9-|-0-0-10\3-|
D|-12-12-12-12-10-10-10-10-9-9-|-0-0-10\3-|

e|-------------|
B|-------------|
G|-------------|
D|-0-0-X-X-0-0-|
A|-0-0-X-X-0-0-|
D|-0-0-X-X-0-0-|

************************************

| \  Slide down
| X  Dead note

************************************
Suggest correction
Give kudos to tab author, rate the tab!
1 2 3 4 5
comments
print report bad tab
guest
You may want to rate the tab now too:
select rating
Wanna post a correction for this tab? Suggest correction