Oops, an error
Loading. Please wait.

The Resistance tab

version 2
version 2

Whole song

  • Lead guitar tabs coming soon. Original song played... Show more
  • This is the full tabbed out version of "The Resist... Show more

Interactive

by Skillet
1,138 views 75 this week
4 commentsread comments
1 2 3 4 5
x 3
add to favorites
×
Save as Personal and add changes to this tab that will be seen only by you. Learn more ›
×
You can save this tab as Personal to edit and correct it or add notes. All changes will be seen only by you. Learn more »
launch autoscroll
font size
0
reset
how to read this tab
guitar tuner
edit
Autoscroll
slow
fast
+/-
esc
set tempo
stop
[Intro Guitar 1 - Korey]

D|---------------------------------------------------------------------------|
A|---------------------------------------------------------------------------|
F|---------------------------------------------------------------------------|
C|-2---------2----2-2------------------------------2-------------------------|
G|-2---------2----2-2------------------------------2-------------------------|
C|-2---------2----2-2---------------------------14\2-------------------------|

D|---------------------------------------------------------------------------|
A|---------------------------------------------------------------------------|
F|----------------------------7------------------------------------7---------|
C|-2-x-x----x----x-x--5-------7--------2----x-x---2-----5-2-5-2-5--7---------|
G|-2-x-x----x----x-x--5-------5--------2----x-x---2-----5-2-5-2-5--5---------|
C|-2-x-x----x----x-x--5----------------2----x-x---2-----5-2-5-2-5------------|

D|---------------------------------------------------------------------------|
A|---------------------------------------------------------------------------|
F|----------------------------7------------------------------------7---------|
C|-2-x-x----x----x-x--5-------7--------2----x-x---2-----5-2-5-2-5--7---------|
G|-2-x-x----x----x-x--5-------5--------2----x-x---2-----5-2-5-2-5--5---------|
C|-2-x-x----x----x-x--5----------------2----x-x---2-----5-2-5-2-5------------|

[Intro Guitar 2 - Seth]

D|-7-7-5-5-3-3-2-2-0-0-2-2-3-3-0-0-------------------------------------------|
A|---------------------------------------------------------------------------|
F|---------------------------------------------------------------------------|
C|---------------------------------------------------------------------------| x6
G|---------------------------------------------------------------------------|
C|---------------------------------------------------------------------------|

[Verse 1 Guitar 1 - Korey]

D|---------------------------------------------------------------------------|
A|---------------------------------------------------------------------------|
F|---------------------------------------------------------------------------|
C|---------------------------------------------------------------------------|
G|---------------------------------------------------------------------------|
C|-2--------------------------2------------------2-------------------15\2----|

D|---------------------------------------------------------------------------|
A|---------------------------------------------------------------------------|
F|---------------------------------------------------------------------------|
C|---------------------------------------------------------------------------|
G|---------------------------------------------------------------------------|
C|-2----5-4-----------0-2-----------5-4--------------------------------------|

D|---------------------------------------------------------------------------|
A|---------------------------------------------------------------------------|
F|---------------------------------------------------------------------------|
C|---------------------------------------------------------------------------|
G|---------------------------------------------------------------------------|
C|-2----5-4-----------0-2-----------5-4------------0-2-----------5-4---------|

[Verse 1 Guitar 2 - Seth]

D|-7-7-5-5-3-3-2-2-0-0-2-2-3-3-0-0-------------------------------------------|
A|---------------------------------------------------------------------------|
F|---------------------------------------------------------------------------|
C|---------------------------------------------------------------------------| x5
G|---------------------------------------------------------------------------|
C|---------------------------------------------------------------------------|
PM[----------------------------------]

[Chorus Guitar 1 - Korey Only]

D|---------------------------------------------------------------------------|
A|---------------------------------------------------------------------------|
F|-------------5--5--5--5----------------------------------------------------|
C|-2--2--2--2--5--5--5--5--7--7--7--7--0--0--0--0----------------------------| x2
G|-2--2--2--2--3--3--3--3--7--7--7--7--0--0--0--0----------------------------|
C|-2--2--2--2--------------7--7--7--7--0--0--0--0----------------------------|

D|---------------------------------------------------------------------------|
A|---------------------------------------------------------------------------|
F|-------------5--5--5--5----------------------------------------------------|
C|-2--2--2--2--5--5--5--5--5--5--5--5--0--0--0--0----------------------------|
G|-2--2--2--2--3--3--3--3--5--5--5--5--0--0--0--0----------------------------|
C|-2--2--2--2--------------5--5--5--5--0--0--0--0----------------------------|

D|---------------------------------------------------------------------------|
A|---------------------------------------------------------------------------|
F|-------------5--5--5--5----------------------------------------------------|
C|-2--2--2--2--5--5--5--5--7--7--7--7----------------------------------------|
G|-2--2--2--2--3--3--3--3--7--7--7--7----------------------------------------|
C|-2--2--2--2--------------7--7--7--7----------------------------------------|

[Post-Chorus Guitar 1 - Korey]

D|---------------------------------------------------------------------------|
A|---------------------------------------------------------------------------|
F|----------------------------7------------------------------------7---------|
C|-2-x-x----x----x-x--5-------7--------2----x-x---2-----5-2-5-2-5--7---------|
G|-2-x-x----x----x-x--5-------5--------2----x-x---2-----5-2-5-2-5--5---------|
C|-2-x-x----x----x-x--5----------------2----x-x---2-----5-2-5-2-5------------|

[Post-Chorus Guitar 2 - Seth]

D|-7-7-5-5-3-3-2-2-0-0-2-2-3-3-0-0-------------------------------------------|
A|---------------------------------------------------------------------------|
F|---------------------------------------------------------------------------|
C|---------------------------------------------------------------------------| x6
G|---------------------------------------------------------------------------|
C|---------------------------------------------------------------------------|

[Verse 2 Guitar 1 - Korey]

D|---------------------------------------------------------------------------|
A|---------------------------------------------------------------------------|
F|---------------------------------------------------------------------------|
C|---------------------------------------------------------------------------|
G|---------------------------------------------------------------------------|
C|-2-----------------2---------------------2-------------------2-------------|

[Verse 2 Guitar 2 - Seth]

D|-7-7-5-5-3-3-2-2-0-0-2-2-3-3-0-0-------------------------------------------|
A|---------------------------------------------------------------------------|
F|---------------------------------------------------------------------------|
C|---------------------------------------------------------------------------| x3
G|---------------------------------------------------------------------------|
C|---------------------------------------------------------------------------|
PM[----------------------------------]

[Chorus Guitar 1 - Korey Only]

D|---------------------------------------------------------------------------|
A|---------------------------------------------------------------------------|
F|-------------5--5--5--5----------------------------------------------------|
C|-2--2--2--2--5--5--5--5--7--7--7--7--0--0--0--0----------------------------| x2
G|-2--2--2--2--3--3--3--3--7--7--7--7--0--0--0--0----------------------------|
C|-2--2--2--2--------------7--7--7--7--0--0--0--0----------------------------|

D|---------------------------------------------------------------------------|
A|---------------------------------------------------------------------------|
F|-------------5--5--5--5----------------------------------------------------|
C|-2--2--2--2--5--5--5--5--5--5--5--5--0--0--0--0----------------------------|
G|-2--2--2--2--3--3--3--3--5--5--5--5--0--0--0--0----------------------------|
C|-2--2--2--2--------------5--5--5--5--0--0--0--0----------------------------|

D|---------------------------------------------------------------------------|
A|---------------------------------------------------------------------------|
F|-------------5--5--5--5----------------------------------------------------|
C|-2--2--2--2--5--5--5--5--7--7--7--7--7--7--7--7----------------------------|
G|-2--2--2--2--3--3--3--3--7--7--7--7--7--7--7--7----------------------------|
C|-2--2--2--2--------------7--7--7--7--7--7--7--7----------------------------|

[Bridge Guitar 1 - Korey Only] Listen for when the guitar comes in.

D|---------------------------------------------------------------------------|
A|---------------------------------------------------------------------------|
F|---------------------------------------------------------------------------|
C|---------------------------------------------------------------------------|
G|-7-7-7-7-7-7-7-7-7-7-7-7-7-7-7-7-------------------------------------------|
C|-7-7-7-7-7-7-7-7-7-7-7-7-7-7-7-7-------------------------------------------|
PM[-------------------------------]

D|---------------------------------------------------------------------------|
A|---------------------------------------------------------------------------|
F|---------------------------------------------------------------------------|
C|---------------------------------------------------------------------------|
G|-9-9-9-9-9-9-9-9-9-9-9-9-9-9-9-9-------------------------------------------|
C|-9-9-9-9-9-9-9-9-9-9-9-9-9-9-9-9-------------------------------------------|
PM[-------------------------------]

[Chorus Guitar 1 - Korey Only]

D|---------------------------------------------------------------------------|
A|---------------------------------------------------------------------------|
F|-------------5--5--5--5----------------------------------------------------|
C|-2--2--2--2--5--5--5--5--7--7--7--7--0--0--0--0----------------------------| x2
G|-2--2--2--2--3--3--3--3--7--7--7--7--0--0--0--0----------------------------|
C|-2--2--2--2--------------7--7--7--7--0--0--0--0----------------------------|

D|---------------------------------------------------------------------------|
A|---------------------------------------------------------------------------|
F|-------------5--5--5--5----------------------------------------------------|
C|-2--2--2--2--5--5--5--5--5--5--5--5--0--0--0--0----------------------------|
G|-2--2--2--2--3--3--3--3--5--5--5--5--0--0--0--0----------------------------|
C|-2--2--2--2--------------5--5--5--5--0--0--0--0----------------------------|

D|---------------------------------------------------------------------------|
A|---------------------------------------------------------------------------|
F|-------------5--5--5--5----------------------------------------------------|
C|-2--2--2--2--5--5--5--5--7--7--7--7--7--7--7--7----------------------------|
G|-2--2--2--2--3--3--3--3--7--7--7--7--7--7--7--7----------------------------|
C|-2--2--2--2--------------7--7--7--7--7--7--7--7----------------------------|

[Post-Chorus Guitar 1 - Korey]

D|---------------------------------------------------------------------------|
A|---------------------------------------------------------------------------|
F|----------------------------7------------------------------------7---------|
C|-2-x-x----x----x-x--5-------7--------2----x-x---2-----5-2-5-2-5--7---------|
G|-2-x-x----x----x-x--5-------5--------2----x-x---2-----5-2-5-2-5--5---------|
C|-2-x-x----x----x-x--5----------------2----x-x---2-----5-2-5-2-5------------|

D|---------------------------------------------------------------------------|
A|---------------------------------------------------------------------------|
F|------------------------------7----------------------------------7---------|
C|-2----x-x----x----x-x--5------7------2----x-x---2-----5-2-5-2-5--7---------|
G|-2----x-x----x----x-x--5------5------2----x-x---2-----5-2-5-2-5--5---------|
C|-2----x-x----x----x-x--5-------------2----x-x---2-----5-2-5-2-5------------|

[Post-Chorus Guitar 2 - Seth]

D|-7-7-5-5-3-3-2-2-0-0-2-2-3-3-0-0-------------------------------------------|
A|---------------------------------------------------------------------------|
F|---------------------------------------------------------------------------|
C|---------------------------------------------------------------------------| x6
G|---------------------------------------------------------------------------|
C|---------------------------------------------------------------------------|

[Outro Part 1 Guitar 1 - Korey]

D|----------------------|
A|----------------------|
F|------------7---------|
C|-5-2-5-2-5--7---------|
G|-5-2-5-2-5--5---------|
C|-5-2-5-2-5------------|

[Outro Part 1 Guitar 2 - Seth]

D|-0-0-2-2-3-3-0------------------------|
A|--------------------------------------|
F|--------------------------------------|
C|--------------------------------------|
G|--------------------------------------|
C|--------------------------------------|

Everything stops, then drums come back in.

[Outro Part 2 Guitar 1 - Korey]

D|-----------------------|
A|-----------------------|
F|------------7----------|
C|-5-2-5-7-5--7----2-----|
G|-5-2-5-7-5--5----2-----|
C|-5-2-5-7-5-------2-----|

D|-----------------------|
A|-----------------------|
F|------------7----------|
C|-5-2-5-7-5--7----------| x2
G|-5-2-5-7-5--5----------|
C|-5-2-5-7-5-------------|
            
D|-----------------------|
A|-----------------------|
F|-----------------------|
C|------------*12--------|
G|-10--9--10------10--9--|
C|-----------------------|

D|-----------------------|
A|-----------------------|
F|------------7----------|
C|-5-2-5-7-5--7----------|
G|-5-2-5-7-5--5----------|
C|-5-2-5-7-5-------------|

D|---------------------------------------------------------------------------|
A|---------------------------------------------------------------------------|
F|-9-9-9-9----7-7-7-7----6-6-------------------------------------------------|
C|-9-9-9-9----7-7-7-7----6-6-------------------------------------------------|
G|-7-7-7-7----5-5-5-5----4-4-------------------------------------------------|
C|---------------------------------------------------------------------------|

D|--------------------------------|
A|--------------------------------|
F|--------------------------------|
C|------------7-7-7-7-5b----------|
G|-2---2-2----5-5-5-5-5b----------|
C|-2---2-2------------5b----------|
PM[-] [---]  [-------]

D|-----------------------|
A|-----------------------|
F|------------7----------|
C|-5-2-5-7-5--7----2-----|
G|-5-2-5-7-5--5----2-----|
C|-5-2-5-7-5-------2-----|

D|-----------------------|
A|-----------------------|
F|------------7----------|
C|-5-2-5-7-5--7----------|
G|-5-2-5-7-5--5----------|
C|-5-2-5-7-5-------------|
            
D|-----------------------|
A|-----------------------|
F|-----------------------|
C|------------*12--------|
G|-10--9--10------10--9--|
C|-----------------------|

D|---------------------------------------------------------------------------|
A|---------------------------------------------------------------------------|
F|-9-9-9-9----7-7-7-7----6-6-------------------------------------------------|
C|-9-9-9-9----7-7-7-7----6-6-------------------------------------------------|
G|-7-7-7-7----5-5-5-5----4-4-------------------------------------------------|
C|---------------------------------------------------------------------------|

D|--------------------------------|
A|--------------------------------|
F|--------------------------------|
C|------------7-7-7-7-5-----------|
G|-2---2-2----5-5-5-5-5-----------|
C|-2---2-2------------5-----------|
PM[-] [---]  [-------]


(Seth comes in here.)
D|-----------------------|
A|-----------------------|
F|------------7----------|
C|-5-2-5-7-5--7----2-----|
G|-5-2-5-7-5--5----2-----|
C|-5-2-5-7-5-------2-----|

D|-----------------------|
A|-----------------------|
F|------------7----------|
C|-5-2-5-7-5--7----------|
G|-5-2-5-7-5--5----------|
C|-5-2-5-7-5-------------|

D|-----------------------|
A|-----------------------|
F|------------7----------|
C|-5-2-5-7-5--7----2-----|
G|-5-2-5-7-5--5----2-----|
C|-5-2-5-7-5-------2-----|

D|-----------------------|
A|-----------------------|
F|------------7----------|
C|-5-2-5-7-5--7----------|
G|-5-2-5-7-5--5----------|
C|-5-2-5-7-5-------------|


D|-----------------------|
A|-----------------------|
F|------------7----------|
C|-5-2-5-7-5--7----2-----|
G|-5-2-5-7-5--5----2-----|
C|-5-2-5-7-5-------2-----|

D|-----------------------|
A|-----------------------|
F|------------7----------|
C|-5-2-5-7-5--7----------|
G|-5-2-5-7-5--5----------|
C|-5-2-5-7-5-------------|

D|------------------------|
A|------------------------|
F|-------------7----------|
C|-5-----------7----------|
G|-5--2-2--5---5----------|
C|-5--2-2--5--------------|
PM   [---]

D|-----------------------|
A|-----------------------|
F|------------7----------|
C|-5-2-5-7-5--7----------|
G|-5-2-5-7-5--5----------|
C|-5-2-5-7-5-------------|

D|---------------------------------------------------------------------------|
A|---------------------------------------------------------------------------|
F|-9-9-9-9----7-7-7-7----6-6-------------------------------------------------|
C|-9-9-9-9----7-7-7-7----6-6-------------------------------------------------|
G|-7-7-7-7----5-5-5-5----4-4-------------------------------------------------|
C|---------------------------------------------------------------------------|

D|--------------------------------|
A|--------------------------------|
F|--------------------------------|
C|------------7-7-7-7-5-----------|
G|-2---2-2----5-5-5-5-5-----------|
C|-2---2-2------------5-----------|
PM[-] [---]  [-------]

D|---------------------------------------------------------------------------|
A|---------------------------------------------------------------------------|
F|-9-9-9-9----7-7-7-7----6-6-------------------------------------------------|
C|-9-9-9-9----7-7-7-7----6-6-------------------------------------------------|
G|-7-7-7-7----5-5-5-5----4-4-------------------------------------------------|
C|---------------------------------------------------------------------------|

D|---------------------------------------------------------------------------|
A|---------------------------------------------------------------------------|
F|---------------------------------------------------------------------------|
C|-5--2--5--7--5--2--5--7------2--2----2--2----------------------------------|
G|-5--2--5--7--5--2--5--7------2--2----2--2----------------------------------|
C|-5--2--5--7--5--2--5--7------2--2----2--2----------------------------------|

[Outro Part 2 Guitar 2 - Seth]

D|-17-17-17-17-17-17-17-17-17b-17b-17b-17b-17b-17b-17b-17b-------------------|
A|---------------------------------------------------------------------------|
F|---------------------------------------------------------------------------|
C|---------------------------------------------------------------------------|
G|---------------------------------------------------------------------------|
C|---------------------------------------------------------------------------|

D|-17/19---------17/19--------15-17-19---------------------------------------|
A|-------------------------------------17-20-22------------------------------|
F|----------------------------------------------19-17-16-16-14-12----15/16---|
C|---------------------------------------------------------------------------|
G|---------------------------------------------------------------------------|
C|---------------------------------------------------------------------------|

D|---------------------19----------------------------------------------------|
A|------------------------17-------------------------------------------------|
F|-14-------*14--------------16----------------------------------------------|
C|------------------------------17-14----------------------------------------|
G|---------------------------------------------------------------------------|
C|---------------------------------------------------------------------------|

D|----15-12----15-12----15-12----15-12----15-12----15-12----15-12----15-12---|
A|----------15-------15-------15-------15-------15-------15-------15-------15|
F|-16------------------------------------------------------------------------|
C|---------------------------------------------------------------------------|
G|---------------------------------------------------------------------------|
C|---------------------------------------------------------------------------|

D|-------12-15----12---------------------------------------------------------|
A|-12-15-------------15--12-10----10--12----15----12-------------------------|
F|------------------------------------------------------14--12---------------|
C|---------------------------------------------------------------------------|
G|---------------------------------------------------------------------------|
C|---------------------------------------------------------------------------|

D|------------------------------------------------------------------12-------|
A|-12--------15--------14----12--------10--------12--------12----------------|
F|---------------------------------------------------------------------------|
C|---------------------------------------------------------------------------|
G|---------------------------------------------------------------------------|
C|---------------------------------------------------------------------------|
                                     
                                      ~~~~~~~~~~~~~~~~~~~~~~~~~~~~~~~~~~~~
D|-14-------15--------17----15--------24----24---------24-------24-----------|
A|---------------------------------------------------------------------------|
F|---------------------------------------------------------------------------|
C|---------------------------------------------------------------------------|
G|---------------------------------------------------------------------------|
C|---------------------------------------------------------------------------|


************************************

| x   Dead note
| b   Bend
| /   Slide up
| \   Slide down
| ~   Vibrato
| PM  Palm mute
| *   Harmonic

************************************
Suggest correction
Creating personal tab
Creating personal tab
You can edit any tab online and save it as your Personal.

You can edit, replace or remove any tab part or add personal notes – all changes will be seen only by you.

Personal tabs can be accessed anytime from any device, even offline.
Learn more »
Give kudos to tab author, rate the tab!
1 2 3 4 5
comments
print report bad tab
4 comments total. Showing first comments.
0 reply
hardtofind581 17 Jan 29, 2017 12:15 PM

is this the live version? cause they play the album recording in drop d

0 reply
printedguitar 47 Mar 18, 2017 12:33 PM

Good tab, sounds just like the album does!!

guest
You may want to rate the tab now too:
select rating
Wanna post a correction for this tab? Suggest correction