Oops, an error
Loading. Please wait.

The Resistance tab

version 3
version 3

Whole song

  • Lead guitar tabs coming soon. Original song played... Show more
  • This is the full tabbed out version of "The Resist... Show more

Interactive

by Skillet
235 views 6 this week
1 commentread comment
1 2 3 4 5
x 5
add to favorites
×
Save as Personal and add changes to this tab that will be seen only by you. Learn more ›
×
You can save this tab as Personal to edit and correct it or add notes. All changes will be seen only by you. Learn more »
launch autoscroll
font size
0
reset
how to read this tab
guitar tuner
edit
Autoscroll
slow
fast
+/-
esc
set tempo
stop
[Rhythm Guitar]

[Intro] (Start Playing At 0:06)

e|--------------------------------|
B|--------------------------------|
G|---------5-------------------5--|
D|-0-x-x-3-5-0-x-x-0-3-0-3-5-3-5--|x2
A|-0-x-x-3-3-0-x-x-0-3-0-3-5-3-3--|
D|-0-x-x-3---0-x-x-0-3-0-3-5-3----|


[Verse 1]

e|-----|-----|----------|-----|---------|---------|-----|-----|
B|-----|-----|----------|-----|---------|---------|-----|-----|
G|-----|-----|----------|-----|---------|---------|-----|-----|
D|--0--|--0--|--0-------|--0--|--0------|--0------|--0--|--0--|
A|--0--|--0--|--0-------|--0--|--0------|--0------|--0--|--0--|
D|--0--|--0--|--0--12\--|--0--|--0-3-2--|--0-3-2--|--0--|--0--|


[Pre-Chorus]

N.C.


[Chorus]

e|--------------------------------------------------------------------------------------------|
B|--------------------------------------------------------------------------------------------|
G|-----------3-3-3-3-------------5-5-5-5-------------3-3-3-3-------------5-5-5-5--------------|
D|-0-0-0-0---3-3-3-3---5-5-5-5---5-5-5-5---0-0-0-0---3-3-3-3---5-5-5-5---5-5-5-5--------------|
A|-0-0-0-0---1-1-1-1---5-5-5-5---3-3-3-3---0-0-0-0---1-1-1-1---5-5-5-5---3-3-3-3--------------|
D|-0-0-0-0-------------5-5-5-5-------------0-0-0-0-------------5-5-5-5------------------------|


e|--------------------------------------------------------------------------------------------|
B|--------------------------------------------------------------------------------------------|
G|-----------3-3-3-3---------------5-5-5-5-------------3-3-3-3--------------------------------|
D|-0-0-0-0---3-3-3-3---3-3-3-3-----5-5-5-5---0-0-0-0---3-3-3-3---5-5-5-5----------------------|
A|-0-0-0-0---1-1-1-1---3-3-3-3-----3-3-3-3---0-0-0-0---1-1-1-1---5-5-5-5----------------------|
D|-0-0-0-0-------------3-3-3-3---------------0-0-0-0-------------5-5-5-5----------------------|


[Post-Chorus]

e|---------------------------------------------------------------------------|
B|---------------------------------------------------------------------------|
G|---------5-------------------5---------------------------------------------|
D|-0-x-x-3-5-0-x-x-0-3-0-3-5-3-5---------------------------------------------|
A|-0-x-x-3-3-0-x-x-0-3-0-3-5-3-3---------------------------------------------|
D|-0-x-x-3---0-x-x-0-3-0-3-5-3-----------------------------------------------|


[Verse 2] (No Rhythm Guitar Until 1:26)

e|-----|-----|
B|-----|-----|
G|-----|-----|
D|--0--|--0--|
A|--0--|--0--|
D|--0--|--0--|


[Pre-Chorus]

N.C.


[Chorus]

e|-----------------------------------------------------------------------------------------------------|
B|-----------------------------------------------------------------------------------------------------|
G|-----------------3-3-3-3-------------5-5-5-5-------------3-3-3-3-------------5-5-5-5-----------------|
D|-0-0-0-0---------3-3-3-3---5-5-5-5---5-5-5-5---0-0-0-0---3-3-3-3---5-5-5-5---5-5-5-5-----------------|
A|-0-0-0-0---------1-1-1-1---5-5-5-5---3-3-3-3---0-0-0-0---1-1-1-1---5-5-5-5---3-3-3-3-----------------|
D|-0-0-0-0-------------------5-5-5-5-------------0-0-0-0-------------5-5-5-5---------------------------|


e|-----------------------------------------------------------------------------------------------------|
B|-----------------------------------------------------------------------------------------------------|
G|-----------3-3-3-3---------------5-5-5-5-------------3-3-3-3-----------------------------------------|
D|-0-0-0-0---3-3-3-3---3-3-3-3-----5-5-5-5---0-0-0-0---3-3-3-3---5-5-5-5-5-5-5-5-----------------------|
A|-0-0-0-0---1-1-1-1---3-3-3-3-----3-3-3-3---0-0-0-0---1-1-1-1---5-5-5-5-5-5-5-5-----------------------|
D|-0-0-0-0-------------3-3-3-3---------------0-0-0-0-------------5-5-5-5-5-5-5-5-----------------------|


[Bridge] (No Rhyhtm Guitar Until 2:16)

e|--------------------------------------------------------------------------------------|
B|--------------------------------------------------------------------------------------|
G|--------------------------------------------------------------------------------------|
D|-5-5-5-5-5-5-5-5-7-7-7-7-7-7-7-7------------------------------------------------------|
A|-5-5-5-5-5-5-5-5-7-7-7-7-7-7-7-7------------------------------------------------------|
D|-5-5-5-5-5-5-5-5-7-7-7-7-7-7-7-7------------------------------------------------------|


[Chorus]

e|-----------------------------------------------------------------------------------------------------|
B|-----------------------------------------------------------------------------------------------------|
G|-----------------3-3-3-3-------------5-5-5-5-------------3-3-3-3-------------5-5-5-5-----------------|
D|-0-0-0-0---------3-3-3-3---5-5-5-5---5-5-5-5---0-0-0-0---3-3-3-3---5-5-5-5---5-5-5-5-----------------|
A|-0-0-0-0---------1-1-1-1---5-5-5-5---3-3-3-3---0-0-0-0---1-1-1-1---5-5-5-5---3-3-3-3-----------------|
D|-0-0-0-0-------------------5-5-5-5-------------0-0-0-0-------------5-5-5-5---------------------------|


e|-----------------------------------------------------------------------------------------------------|
B|-----------------------------------------------------------------------------------------------------|
G|-----------3-3-3-3---------------5-5-5-5-------------3-3-3-3-----------------------------------------|
D|-0-0-0-0---3-3-3-3---3-3-3-3-----5-5-5-5---0-0-0-0---3-3-3-3---5-5-5-5-5-5-5-5-----------------------|
A|-0-0-0-0---1-1-1-1---3-3-3-3-----3-3-3-3---0-0-0-0---1-1-1-1---5-5-5-5-5-5-5-5-----------------------|
D|-0-0-0-0-------------3-3-3-3---------------0-0-0-0-------------5-5-5-5-5-5-5-5-----------------------|

[Outro 1]

e|--------------------------------|
B|--------------------------------|
G|---------5-------------------5--|
D|-0-x-x-3-5-0-x-x-0-3-0-3-5-3-5--|x2
A|-0-x-x-3-3-0-x-x-0-3-0-3-5-3-3--|
D|-0-x-x-3---0-x-x-0-3-0-3-5-3----|

e|--------------------------------|
B|--------------------------------|
G|--------------------------------|
D|-0-3-0-3-0-3-0-3-0-3-0----------|
A|-0-3-0-3-0-3-0-3-0-3-0----------|
D|-0-3-0-3-0-3-0-3-0-3-0----------|


[Outro 2] (Starts At 3:11)

e|------------------------------------------------------------------------------------------------|
B|------------------------------------------------------------------------------------------------|
G|-------------5---------5-----------5-------3/5---------------5-7-7-7-7-5-5-5-5-4-4-4-4-7-7-5-5--|
D|-3-0-3-5-3-0-5-3-0-0-3-5-3-0-3-5-3-5-3-2-3-----3-2-3-0-3-5-3-5-7-7-7-7-5-5-5-5-5-5-5-5-7-7-5-5--|
A|-3-0-3-5-3-0-3-3-0-0-3-3-3-0-3-5-3-3---------------3-0-3-5-3-3-5-5-5-5-3-3-3-3-2-2-2-2-5-5-3-3--|
D|-3-0-3-5-3-0---3-0-0-3---3-0-3-5-3-----------------3-0-3-5-3------------------------------------|
                PM|---|

e|------------------------------------------------------------------|
B|------------------------------------------------------------------|
G|-------------5-------3/5-----7-7-7-7-5-5-5-5-4-4-4-4-----------3--|
D|-3-0-3-5-3-0-5-3-2-3-----3-2-7-7-7-7-5-5-5-5-5-5-5-5-3-0-3-5-3-5--|
A|-3-0-3-5-3-0-3---------------5-5-5-5-3-3-3-3-2-2-2-2-3-0-3-5-3-3--|
D|-3-0-3-5-3-0-----------------------------------------3-0-3-5-3----|


e|--------------------------------------------------|
B|--------------------------------------------------|
G|-----------5-----------5-----------5-----------5--|
D|-3-0-3-5-3-5-3-0-3-5-3-5-3-0-3-5-3-5-3-0-3-5-3-5--|x2
A|-3-0-3-5-3-3-3-0-3-5-3-3-3-0-3-5-3-3-3-0-3-5-3-3--|
D|-3-0-3-5-3---3-0-3-5-3---3-0-3-5-3---3-0-3-5-3----|

e|--------------------------------------|
B|--------------------------------------|
G|--------------------------------------|
D|-12-12-12-12-10-10-10-10-9-9-0-0-10\3-|x2
A|-12-12-12-12-10-10-10-10-9-9-0-0-10\3-|
D|-12-12-12-12-10-10-10-10-9-9-0-0-10\3-|

e|-------------|
B|-------------|
G|-------------|
D|-0-0-X-X-0-0-|
A|-0-0-X-X-0-0-|
D|-0-0-X-X-0-0-|


[Lead Guitar]

e|---------------------|--------------------|
B|--10-10-8-8----------|--------------------|
G|------------10-10-9-9|--7-7-9-9-10-10-7-7-|x6
D|---------------------|--------------------|
A|---------------------|--------------------|
D|---------------------|--------------------| 


[Verse 1]


e|-----|-----|----------|-----|---------|---------|-----|-----|
B|-----|-----|----------|-----|---------|---------|-----|-----|
G|-----|-----|----------|-----|---------|---------|-----|-----|
D|--0--|--0--|--0-------|--0--|--0------|--0------|--0--|--0--|
A|--0--|--0--|--0-------|--0--|--0------|--0------|--0--|--0--|
D|--0--|--0--|--0--12\--|--0--|--0-3-2--|--0-3-2--|--0--|--0--|


[Pre-Chorus]


e|-3h5-5-----3h5-5-----3h5-5-6---5---3---------------------------------------|
B|-3-----3-3-3-----3-3-3---3---3---3---6-5-6---------------------------------|
G|---------------------------------------------------------------------------|
D|---------------------------------------------------------------------------|
A|---------------------------------------------------------------------------|
D|---------------------------------------------------------------------------|


[Chorus]

e|--------------------------------------------------------------------------------------------|
B|--------------------------------------------------------------------------------------------|
G|-----------3-3-3-3-------------5-5-5-5-------------3-3-3-3-------------5-5-5-5--------------|
D|-0-0-0-0---3-3-3-3---5-5-5-5---5-5-5-5---0-0-0-0---3-3-3-3---5-5-5-5---5-5-5-5--------------|
A|-0-0-0-0---1-1-1-1---5-5-5-5---3-3-3-3---0-0-0-0---1-1-1-1---5-5-5-5---3-3-3-3--------------|
D|-0-0-0-0-------------5-5-5-5-------------0-0-0-0-------------5-5-5-5------------------------|


e|--------------------------------------------------------------------------------------------|
B|--------------------------------------------------------------------------------------------|
G|-----------3-3-3-3---------------5-5-5-5-------------3-3-3-3--------------------------------|
D|-0-0-0-0---3-3-3-3---3-3-3-3-----5-5-5-5---0-0-0-0---3-3-3-3---5-5-5-5----------------------|
A|-0-0-0-0---1-1-1-1---3-3-3-3-----3-3-3-3---0-0-0-0---1-1-1-1---5-5-5-5----------------------|
D|-0-0-0-0-------------3-3-3-3---------------0-0-0-0-------------5-5-5-5----------------------|


[Post-Chorus]

e|---------------------------------------------------------------------------|
B|---------------------------------------------------------------------------|
G|---------5-------------------5---------------------------------------------|
D|-0-x-x-3-5-0-x-x-0-3-0-3-5-3-5---------------------------------------------|
A|-0-x-x-3-3-0-x-x-0-3-0-3-5-3-3---------------------------------------------|
D|-0-x-x-3---0-x-x-0-3-0-3-5-3-----------------------------------------------|


[Verse 2]

e|---------------------|--------------------|
B|--10-10-8-8----------|--------------------|
G|------------10-10-9-9|--7-7-9-9-10-10-7-7-|x4
D|---------------------|--------------------|
A|---------------------|--------------------|
D|---------------------|--------------------| 
    *  *  * * *  *  * *   * * * * *  *  * *


[Pre-Chorus]

e|-3h5-5-----3h5-5-----3h5-5-6---5---3---------------------------------------|
B|-3-----3-3-3-----3-3-3---3---3---3---5-6-5---------------------------------|
G|---------------------------------------------------------------------------|
D|---------------------------------------------------------------------------|
A|---------------------------------------------------------------------------|
D|---------------------------------------------------------------------------|


[Chorus]

e|-----------------------------------------------------------------------------------------------|
B|-----------------------------------------------------------------------------------------------|
G|-----------3-3-3-3-------------5-5-5-5-------------3-3-3-3-------------5-5-5-5-----------------|
D|-0-0-0-0---3-3-3-3---5-5-5-5---5-5-5-5---0-0-0-0---3-3-3-3---5-5-5-5---5-5-5-5-----------------|
A|-0-0-0-0---1-1-1-1---5-5-5-5---3-3-3-3---0-0-0-0---1-1-1-1---5-5-5-5---3-3-3-3-----------------|
D|-0-0-0-0-------------5-5-5-5-------------0-0-0-0-------------5-5-5-5---------------------------|


e|-----------------------------------------------------------------------------------------------------|
B|-----------------------------------------------------------------------------------------------------|
G|-----------3-3-3-3---------------5-5-5-5-------------3-3-3-3-----------------------------------------|
D|-0-0-0-0---3-3-3-3---3-3-3-3-----5-5-5-5---0-0-0-0---3-3-3-3---5-5-5-5-5-5-5-5-----------------------|
A|-0-0-0-0---1-1-1-1---3-3-3-3-----3-3-3-3---0-0-0-0---1-1-1-1---5-5-5-5-5-5-5-5-----------------------|
D|-0-0-0-0-------------3-3-3-3---------------0-0-0-0-------------5-5-5-5-5-5-5-5-----------------------|


[Bridge]

e|--------------------------------------------------------------------------------------|
B|-6-6-6-6-6-6-6-6/13-13-13-13\8-8-8-8-8-8-8-8/13-13-13-13\6-6-6-6-6-6-6-6/13-13-13-13\8|
G|--------------------------------------------------------------------------------------|
D|--------------------------------------------------------------------------------------|
A|--------------------------------------------------------------------------------------|
D|--------------------------------------------------------------------------------------|

e|--------------------------------------------------------------------------------------|
B|-8-8-8-8-8-8-8/13-13-13-13\6-6-6-6-6-6-6-6/13-13-13-13\8-8-8-8-8-8-8-8----------------|
G|--------------------------------------------------------------------------------------|
D|--------------------------------------------------------------------------------------|
A|--------------------------------------------------------------------------------------|
D|--------------------------------------------------------------------------------------|


[Chorus]

e|-----------------------------------------------------------------------------------------------|
B|-----------------------------------------------------------------------------------------------|
G|-----------3-3-3-3-------------5-5-5-5-------------3-3-3-3-------------5-5-5-5-----------------|
D|-0-0-0-0---3-3-3-3---5-5-5-5---5-5-5-5---0-0-0-0---3-3-3-3---5-5-5-5---5-5-5-5-----------------|
A|-0-0-0-0---1-1-1-1---5-5-5-5---3-3-3-3---0-0-0-0---1-1-1-1---5-5-5-5---3-3-3-3-----------------|
D|-0-0-0-0-------------5-5-5-5-------------0-0-0-0-------------5-5-5-5---------------------------|


e|-----------------------------------------------------------------------------------------------------|
B|-----------------------------------------------------------------------------------------------------|
G|-----------3-3-3-3---------------5-5-5-5-------------3-3-3-3-----------------------------------------|
D|-0-0-0-0---3-3-3-3---3-3-3-3-----5-5-5-5---0-0-0-0---3-3-3-3---5-5-5-5-5-5-5-5-----------------------|
A|-0-0-0-0---1-1-1-1---3-3-3-3-----3-3-3-3---0-0-0-0---1-1-1-1---5-5-5-5-5-5-5-5-----------------------|
D|-0-0-0-0-------------3-3-3-3---------------0-0-0-0-------------5-5-5-5-5-5-5-5-----------------------|


[Outro 1]

e|---------------------|--------------------|
B|--10-10-8-8----------|--------------------|
G|------------10-10-9-9|--7-7-9-9-10-10-7-7-|x4
D|---------------------|--------------------|
A|---------------------|--------------------|
D|---------------------|--------------------| 

e|--------------------------------|
B|--------------------------------|
G|---------5-------------------5--|
D|-0-x-x-3-5-0-x-x-0-3-0-3-5-3-5--|x2
A|-0-x-x-3-3-0-x-x-0-3-0-3-5-3-3--|
D|-0-x-x-3---0-x-x-0-3-0-3-5-3----|


[Outro 2] (Starts At 3:11)

e|------------------------------------------------------------------------------------------------|
B|------------------------------------------------------------------------------------------------|
G|-------------5---------5-----------5-------3/5---------------5-7-7-7-7-5-5-5-5-4-4-4-4-7-7-5-5--|
D|-3-0-3-5-3-0-5-3-0-0-3-5-3-0-3-5-3-5-3-2-3-----3-2-3-0-3-5-3-5-7-7-7-7-5-5-5-5-5-5-5-5-7-7-5-5--|
A|-3-0-3-5-3-0-3-3-0-0-3-3-3-0-3-5-3-3---------------3-0-3-5-3-3-5-5-5-5-3-3-3-3-2-2-2-2-5-5-3-3--|
D|-3-0-3-5-3-0---3-0-0-3---3-0-3-5-3-----------------3-0-3-5-3------------------------------------|
                PM|---|

e|---------------------------------------------------------------|
B|---------------------------------------------------------------|
G|-------------5---------5-------3/5-----7-7-7-7-5-5-5-5-4-4-4-4-|
D|-3-0-3-5-3-0-5-3-0-0-3-5-3-2-3-----3-2-7-7-7-7-5-5-5-5-5-5-5-5-|
A|-3-0-3-5-3-0-3-3-0-0-3-3---------------5-5-5-5-3-3-3-3-2-2-2-2-|
D|-3-0-3-5-3-0---3-0-0-3-----------------------------------------|
                PM|---|

[Solo]

e|-15Nb-13-13-15-17-15-13-12-------------------------------------------------|
B|---------------------------15-13-12-10-------------------------------------|
G|---------------------------------------13-12-10-----------------12b-p10----|
D|------------------------------------------------12-12b br-p10h12-----------|
A|---------------------------------------------------------------------------|
D|---------------------------------------------------------------------------|

e|---------13-10-------13-10------13-10-------13-10----------------10-12-13--|
B|---------------13-10-------13-10------13-10-------13-10-10-12-13-----------|
G|---------------------------------------------------------------------------|
D|---------------------------------------------------------------------------|
A|-12-10-8-------------------------------------------------------------------|
D|---------------------------------------------------------------------------|
   *  *

e|-12-10---------------------------------------------------------------------|
B|-------13-12-10--------------13----------10--13--12--10--9---10--10--------|
G|----------------13-12-10-12b----12br-p10-12b-15b-14b-12b-11b-12b-12b-------|
D|---------------------------------------------------------------------------|
A|---------------------------------------------------------------------------|
D|---------------------------------------------------------------------------|

e|-12--13--15-------15-20b-20b\20b-20b---------------------------------------|
B|-15b-16b-18brb 18----------------------------------------------------------|
G|---------------------------------------------------------------------------|
D|---------------------------------------------------------------------------|
A|---------------------------------------------------------------------------|
D|---------------------------------------------------------------------------|


************************************

| h   Hammer-on
| p   Pull-off
| b   Bend
| br  Bend release
| pb  Pre-bend
| pbr Pre-bend release
| /   Slide up
| \   Slide down
| ~   Vibrato
| *  Palm mute
| N   Tremolo

************************************

            
            
Suggest correction
Creating personal tab
Creating personal tab
You can edit any tab online and save it as your Personal.

You can edit, replace or remove any tab part or add personal notes – all changes will be seen only by you.

Personal tabs can be accessed anytime from any device, even offline.
Learn more »
comments
print report bad tab
1 comment total.
0 reply
nateG2 10 Aug 29, 2017 10:40 AM

This sounds the closest to the recording. Thank you!

guest
You may want to rate the tab now too:
select rating
Wanna post a correction for this tab? Suggest correction