Oops, an error
Loading. Please wait.

Those Nights tab

version 3
version 3

Whole song

Interactive

by Skillet
15,044 views 3 this week
3 commentsread comments
1 2 3 4 5
x 7
add to favorites
×
Save as Personal and add changes to this tab that will be seen only by you. Learn more ›
×
You can save this tab as Personal to edit and correct it or add notes. All changes will be seen only by you. Learn more »
launch autoscroll
font size
0
reset
how to read this tab
guitar tuner
backing track
0:00
0:00
edit
Autoscroll
slow
fast
+/-
esc
set tempo
stop
Author
Difficulty
 
 Those Nights - Skillet   tabbed by Andrew Hartman

Intro:
Guitar 1:
e|---------------------------------------|
B|---------------------------------------|
G|-5-5-------------------5-5-------------|
D|-5-5--5-5--2-2-3-3-3-3-5-5--5-5--2-2-3-|
A|-3-3--5-5--2-2-3-3-3-3-3-3--5-5--2-2-3-|
E|------3-3------1-1-1-1------3-3------1-|

Guitar 2:
e|---------30--------------------30------|
B|----53-------0-1-1-1-1----53-------0-1-|
G|---------------------------------------|
D|---------------------------------------|
A|---------------------------------------|
E|---------------------------------------|

Verse 1: The first part is piano: "I remember when we use to laugh"...
"...from trying to solve all the problems we're goin through..."
w/palm muting
e|------------------------------------------------------------------|
B|------------------------------------------------------------------|
G|-----------------555555--------------------------555555-----------|
D|-7777773333333333555555555555555577777733333333335555555555555555-|
A|-7777773333333333333333555555555577777733333333333333335555555555-|
E|-5555551111111111------33333333335555551111111111------3333333333-|
"Together we faced it all."
e|---------------------------|
B|---------------------------|
G|---------------------------|
D|-7777777777777777333333333-|
A|-7777777777777777333333333-|
E|-5555555555555555111111111-|

Pause:"Remember when we..."

Chorus:"Stated up late and we'd talk all night..."
e|-----------------------------------------------|
B|-----------------------------------------------|
G|-3--3-3----------------------------------------|(x2)
D|-3--3-3-3-3--3-3-3--3-3--7--7-7-2-2-3-3-3--3-3-|
A|-5--5-5-3-3--3-3-3--3-3--7--7-7-2-2-3-3-3--3-3-|
E|--------1-1--1-1-1--1-1--5--5-5-----1-1-1--1-1-|

repeat intro (x1)

verse 2: Same as verse 1 w/the piano and everything.

Bridge:
play intro (x3) w/:
"Those nights belong to us.
There's nothing wrong w/us.
Those nights belong to us."

Then repeat intro one more time.

Piano:
"I remember when we use to laugh.
And now i wish those nights would last."

Solo(yay):
Guitar 1:
e|---------------------------------|
B|---------------------------------|
G|-5-5-xxxx------------------------|
D|-5-5-xxxx-5-5-pause-3-3-xxxx-3-3-|
A|-3-3-xxxx-5-5-------3-3-xxxx-3-3-|
E|----------5-5-------1-1-xxxx-1-1-|

Guitar 2:
e|----------------------------------------|
B|----------------------------------------|
G|-------------15\3---------------15/16\3-|
D|-------------15\3---------------15/16\3-|
A|-------------15\3---------------15/16\3-|
E|----------------------------------------|

And then...
Guitar 1:
e|---------------------------------0-|
B|-----------------------------3333x-|
G|-555544445555000022224444555500005-|
D|-----------------------------------|
A|-----------------------------------|
E|-----------------------------------|

Guitar 2:
e|------------------------------|
B|------------------------------|
G|-7--7-7-----------------------|
D|-7--7-7-2-2--3333222233335555-|
A|-5--5-5-2-2--3333222233335555-|
E|-------------1111----11113333-|

Chorus (x2)

There's some more lyrics after the (x2) chorus but there's no guitar.
And that's it! Hope you like it. Comments and questions are encouraged. Have fun! -Andrew

            
            
Suggest correction
Creating personal tab
Creating personal tab
You can edit any tab online and save it as your Personal.

You can edit, replace or remove any tab part or add personal notes – all changes will be seen only by you.

Personal tabs can be accessed anytime from any device, even offline.
Learn more »
comments
print report bad tab
3 comments total.
+1 reply
spike46 107 Sep 04, 2008 09:14 AM

excellent tab
but the chorus doesn't sound quite right
i think it should be something like this (changing a couple of F's with a couple of G's)
e|-----------------------------------------------|
B|-----------------------------------------------|
G|-3--3-3----------------------------------------|(x2)
D|-3--3-3-5-5--3-3-3--3-3--7--7-7-2-2-3-3-3--3-3-|
A|-5--5-5-5-5--3-3-3--3-3--7--7-7-2-2-3-3-3--3-3-|
E|--------3-3--1-1-1--1-1--5--5-5-----1-1-1--1-1-|

+1 reply
aaronbob13 105 Apr 20, 2009 01:45 PM

skillet plays this song in drop B.... but this works if your to lazy to tune down.

-1 reply
Headshot360k 41 Mar 01, 2012 06:53 PM

There can't be a second guitar in this song, because their second guitarist is the one that also plays piano, so you can't have piano and a second guitarist in the same song. I saw them live and she had the guitar slung on her back while she was playing the piano...

guest
You may want to rate the tab now too:
select rating
Wanna post a correction for this tab? Suggest correction