Oops, an error
Loading. Please wait.

Undefeated tab

version 2
version 2

Whole song

  • This tab does not have the exact rhythm of the gui... Show more
by Skillet
64 views 3 this week
no commentswrite comment
1 2 3 4 5
3 more votes to show rating
add to favorites
×
Save as Personal and add changes to this tab that will be seen only by you. Learn more ›
×
You can save this tab as Personal to edit and correct it or add notes. All changes will be seen only by you. Learn more »
launch autoscroll
font size
0
reset
how to read this tab
guitar tuner
edit
Autoscroll
slow
fast
+/-
esc
set tempo
stop
About this tab version
This tab does not have the exact rhythm of the guitar. For the exact rhythm, listen to the album recording. Was this info helpful? Yes No
[Intro]
C#|---------|-----------|------------|
G#|---------|-----------|------------|
E |---------|-----------|------------|
B |-7-0-7-0-|-7-7-0-7-0-|-7-0-7-0-7--|
F#|-5-0-5-0-|-5-5-0-5-0-|-5-0-5-0-5--|
B |---0---0-|-----0-----|---0---0----|

C#|---------|-----------|---------|-------------------|
G#|---------|-----------|---------|-------------------|
E |-7---7---|-7-7---7---|---------|-------------------|
B |-7-0-7-0-|-7-7-0-7-0-|-8-8-8-8-|-5-5-5-5-5/10-10---|
F#|-5-0-5-0-|-5-5-0-5-0-|-8-8-8-8-|-5-5-5-5-5/10-10---|
B |---0---0-|-----0---0-|-8-8-8-8-|-5-5-5-5-5/10-10---|

[Verse]
C#|-----------------|-----------------|
G#|-----------------|-----------------|
E |-----------------|-----------------|
B |-0-0-0-0-0-0-0-0-|-0-0-0-0-0-0-0-0-|
F#|-0-0-0-0-0-0-0-0-|-0-0-0-0-0-0-0-0-|
B |-0-0-0-0-0-0-0-0-|-0-0-0-0-0-0-0-0-|
    * * * * * * * *   * * * * * * * *

Hands on my neck...
C#|-----------------|--------------------------|-----------------|-----------------|
G#|-----------------|--------------------------|-----------------|-----------------|
E |-----------------|--------------------------|-----------------|-----------------|
B |-0-0-0-0-0-0-0-0-|-10-10-10-10-10-10-10-10--|-3-3-3-3-3-3-3-3-|-5-5-5-5-5-5-5-5-|
F#|-0-0-0-0-0-0-0-0-|-10-10-10-10-10-10-10-10--|-3-3-3-3-3-3-3-3-|-5-5-5-5-5-5-5-5-|
B |-0-0-0-0-0-0-0-0-|-10-10-10-10-10-10-10-10--|-3-3-3-3-3-3-3-3-|-5-5-5-5-5-5-5-5-|
    * * * * * * * *   *  *  *  *  *  *  *  *     * * * * * * * *   * * * * * * * *

Bleeding me dry, I'm fading fast...
C#|-----------------|--------------------------|-----------------|-----------------|
G#|-----------------|--------------------------|-----------------|-----------------|
E |-----------------|--------------------------|-----------------|-----------------|
B |-0-0-0-0-0-0-0-0-|-10-10-10-10-10-10-10-10--|-3-3-3-3-3-3-3-3-|-5-5-5-5-5-5-5-5-|
F#|-0-0-0-0-0-0-0-0-|-10-10-10-10-10-10-10-10--|-3-3-3-3-3-3-3-3-|-5-5-5-5-5-5-5-5-|
B |-0-0-0-0-0-0-0-0-|-10-10-10-10-10-10-10-10--|-3-3-3-3-3-3-3-3-|-5-5-5-5-5-5-5-5-|
    * * * * * * * *   *  *  *  *  *  *  *  *     * * * * * * * *   * * * * * * * *

On my own, I can make it alone...
C#|-----------------|--------------------------|-----------------|-----------------|
G#|-----------------|--------------------------|-----------------|-----------------|
E |-----------------|--------------------------|-----------------|-----------------|
B |-0-0-0-0-0-0-0-0-|-10-10-10-10-10-10-10-10--|-3-3-3-3-3-3-3-3-|-5-5-5-5-5-5-5-5-|
F#|-0-0-0-0-0-0-0-0-|-10-10-10-10-10-10-10-10--|-3-3-3-3-3-3-3-3-|-5-5-5-5-5-5-5-5-|
B |-0-0-0-0-0-0-0-0-|-10-10-10-10-10-10-10-10--|-3-3-3-3-3-3-3-3-|-5-5-5-5-5-5-5-5-|
    * * * * * * * *   *  *  *  *  *  *  *  *     * * * * * * * *   * * * * * * * *

Through the sweat and the blood...
C#|-----------------|--------------------------|-----------------|-----------------|
G#|-----------------|--------------------------|-----------------|-----------------|
E |-----------------|--------------------------|-----------------|-----------------|
B |-0-0-0-0-0-0-0-0-|-10-10-10-10-10-10-10-10--|-3-3-3-3-3-3-3-3-|-5-5-5-5-5-5-5-5-|
F#|-0-0-0-0-0-0-0-0-|-10-10-10-10-10-10-10-10--|-3-3-3-3-3-3-3-3-|-5-5-5-5-5-5-5-5-|
B |-0-0-0-0-0-0-0-0-|-10-10-10-10-10-10-10-10--|-3-3-3-3-3-3-3-3-|-5-5-5-5-5-5-5-5-|
    * * * * * * * *   *  *  *  *  *  *  *  *     * * * * * * * *   * * * * * * * *

[Pre-Chorus]
This time, I'm coming like a hurricane...
C#|------|-------|---------------------|
G#|------|-------|---------------------|
E |------|-------|---------------------|
B |--8---|--(8)--|--5--(5)/10--(10)\---|
F#|--8---|--(8)--|--5--(5)/10--(10)\---|
B |--8---|--(8)--|--5--(5)/10--(10)\---|

[Chorus]
I came to fight for the love of the game...
C#|---------|-----------|---------|-------------------|
G#|---------|-----------|---------|-------------------|
E |-7---7---|-7-7---7---|---------|-------------------|
B |-7-0-7-0-|-7-7-0-7-0-|-8-8-8-8-|-5-5-5-5-5/10-10---|
F#|-5-0-5-0-|-5-5-0-5-0-|-8-8-8-8-|-5-5-5-5-5/10-10---|
B |---0---0-|-----0---0-|-8-8-8-8-|-5-5-5-5-5/10-10---|

Off the leash, out of the cage...
C#|---------|-----------|---------|-------------------|
G#|---------|-----------|---------|-------------------|
E |-7---7---|-7-7---7---|---------|-------------------|
B |-7-0-7-0-|-7-7-0-7-0-|-8-8-8-8-|-5-5-5-5-5/10-10---|
F#|-5-0-5-0-|-5-5-0-5-0-|-8-8-8-8-|-5-5-5-5-5/10-10---|
B |---0---0-|-----0---0-|-8-8-8-8-|-5-5-5-5-5/10-10---|

I, I know I can beat it...
C#|---------|-----------|---------|-------------------|
G#|---------|-----------|---------|-------------------|
E |-7---7---|-7-7---7---|---------|-------------------|
B |-7-0-7-0-|-7-7-0-7-0-|-8-8-8-8-|-5-5-5-5-5/10-10---|
F#|-5-0-5-0-|-5-5-0-5-0-|-8-8-8-8-|-5-5-5-5-5/10-10---|
B |---0---0-|-----0---0-|-8-8-8-8-|-5-5-5-5-5/10-10---|

Fight for the love of the game...
C#|---------|-----------|---------|-------------------|
G#|---------|-----------|---------|-------------------|
E |-7---7---|-7-7---7---|---------|-------------------|
B |-7-0-7-0-|-7-7-0-7-0-|-8-8-8-8-|-5-5-5-5-5/10-10---|
F#|-5-0-5-0-|-5-5-0-5-0-|-8-8-8-8-|-5-5-5-5-5/10-10---|
B |---0---0-|-----0---0-|-8-8-8-8-|-5-5-5-5-5/10-10---|

C#|---------|-----------|----------|------------------|
G#|---------|-----------|----------|------------------|
E |-7---7---|-7-7---7---|--7---7---|------------------|
B |-7-0-7-0-|-7-7-0-7-0-|--7-0-7-0-|-0--0--0---10-10--|
F#|-5-0-5-0-|-5-5-0-5-0-|--5-0-5-0-|-0--0--0---10-10--|
B |---0---0-|-----0---0-|----0---0-|-0--0--0---10-10--|

[Verse]
Here at the edge, losing my ground...
C#|-----------------|--------------------------|-----------------|-----------------|
G#|-----------------|--------------------------|-----------------|-----------------|
E |-----------------|--------------------------|-----------------|-----------------|
B |-0-0-0-0-0-0-0-0-|-10-10-10-10-10-10-10-10--|-3-3-3-3-3-3-3-3-|-5-5-5-5-5-5-5-5-|
F#|-0-0-0-0-0-0-0-0-|-10-10-10-10-10-10-10-10--|-3-3-3-3-3-3-3-3-|-5-5-5-5-5-5-5-5-|
B |-0-0-0-0-0-0-0-0-|-10-10-10-10-10-10-10-10--|-3-3-3-3-3-3-3-3-|-5-5-5-5-5-5-5-5-|
    * * * * * * * *   *  *  *  *  *  *  *  *     * * * * * * * *   * * * * * * * *

Pushing me over, pulling me down...
C#|-----------------|--------------------------|-----------------|-----------------|
G#|-----------------|--------------------------|-----------------|-----------------|
E |-----------------|--------------------------|-----------------|-----------------|
B |-0-0-0-0-0-0-0-0-|-10-10-10-10-10-10-10-10--|-3-3-3-3-3-3-3-3-|-5-5-5-5-5-5-5-5-|
F#|-0-0-0-0-0-0-0-0-|-10-10-10-10-10-10-10-10--|-3-3-3-3-3-3-3-3-|-5-5-5-5-5-5-5-5-|
B |-0-0-0-0-0-0-0-0-|-10-10-10-10-10-10-10-10--|-3-3-3-3-3-3-3-3-|-5-5-5-5-5-5-5-5-|
    * * * * * * * *   *  *  *  *  *  *  *  *     * * * * * * * *   * * * * * * * *

On my own, no I'm never alone...
C#|-----------------|--------------------------|-----------------|-----------------|
G#|-----------------|--------------------------|-----------------|-----------------|
E |-----------------|--------------------------|-----------------|-----------------|
B |-0-0-0-0-0-0-0-0-|-10-10-10-10-10-10-10-10--|-3-3-3-3-3-3-3-3-|-5-5-5-5-5-5-5-5-|
F#|-0-0-0-0-0-0-0-0-|-10-10-10-10-10-10-10-10--|-3-3-3-3-3-3-3-3-|-5-5-5-5-5-5-5-5-|
B |-0-0-0-0-0-0-0-0-|-10-10-10-10-10-10-10-10--|-3-3-3-3-3-3-3-3-|-5-5-5-5-5-5-5-5-|
    * * * * * * * *   *  *  *  *  *  *  *  *     * * * * * * * *   * * * * * * * *

Through the sweat and the blood...
C#|-----------------|--------------------------|-----------------|-----------------|
G#|-----------------|--------------------------|-----------------|-----------------|
E |-----------------|--------------------------|-----------------|-----------------|
B |-0-0-0-0-0-0-0-0-|-10-10-10-10-10-10-10-10--|-3-3-3-3-3-3-3-3-|-5-5-5-5-5-5-5-5-|
F#|-0-0-0-0-0-0-0-0-|-10-10-10-10-10-10-10-10--|-3-3-3-3-3-3-3-3-|-5-5-5-5-5-5-5-5-|
B |-0-0-0-0-0-0-0-0-|-10-10-10-10-10-10-10-10--|-3-3-3-3-3-3-3-3-|-5-5-5-5-5-5-5-5-|
    * * * * * * * *   *  *  *  *  *  *  *  *     * * * * * * * *   * * * * * * * *

[Pre-Chorus]
This time, I'm coming like a hurricane...
C#|------|-------|---------------------|
G#|------|-------|---------------------|
E |------|-------|---------------------|
B |--8---|--(8)--|--5--(5)/10--(10)\---|
F#|--8---|--(8)--|--5--(5)/10--(10)\---|
B |--8---|--(8)--|--5--(5)/10--(10)\---|

[Chorus]
I came to fight for the love of the game...
C#|---------|-----------|---------|-------------------|
G#|---------|-----------|---------|-------------------|
E |-7---7---|-7-7---7---|---------|-------------------|
B |-7-0-7-0-|-7-7-0-7-0-|-8-8-8-8-|-5-5-5-5-5/10-10---|
F#|-5-0-5-0-|-5-5-0-5-0-|-8-8-8-8-|-5-5-5-5-5/10-10---|
B |---0---0-|-----0---0-|-8-8-8-8-|-5-5-5-5-5/10-10---|

Off the leash, out of the cage...
C#|---------|-----------|---------|-------------------|
G#|---------|-----------|---------|-------------------|
E |-7---7---|-7-7---7---|---------|-------------------|
B |-7-0-7-0-|-7-7-0-7-0-|-8-8-8-8-|-5-5-5-5-5/10-10---|
F#|-5-0-5-0-|-5-5-0-5-0-|-8-8-8-8-|-5-5-5-5-5/10-10---|
B |---0---0-|-----0---0-|-8-8-8-8-|-5-5-5-5-5/10-10---|

I, I know I can beat it...
C#|---------|-----------|---------|-------------------|
G#|---------|-----------|---------|-------------------|
E |-7---7---|-7-7---7---|---------|-------------------|
B |-7-0-7-0-|-7-7-0-7-0-|-8-8-8-8-|-5-5-5-5-5/10-10---|
F#|-5-0-5-0-|-5-5-0-5-0-|-8-8-8-8-|-5-5-5-5-5/10-10---|
B |---0---0-|-----0---0-|-8-8-8-8-|-5-5-5-5-5/10-10---|

Fight for the love of the game...
C#|---------|-----------|---------|-------------------|
G#|---------|-----------|---------|-------------------|
E |-7---7---|-7-7---7---|---------|-------------------|
B |-7-0-7-0-|-7-7-0-7-0-|-8-8-8-8-|-5-5-5-5-5/10-10---|
F#|-5-0-5-0-|-5-5-0-5-0-|-8-8-8-8-|-5-5-5-5-5/10-10---|
B |---0---0-|-----0---0-|-8-8-8-8-|-5-5-5-5-5/10-10---| 

[Bridge]
All the strength that I have...
C#|-----------------|-----------------|-----------------|-------------------------|
G#|-----------------|-----------------|-----------------|-------------------------|
E |-----------------|-----------------|-----------------|-------------------------|
B |-8-8-8-8-8-8-8-8-|-5-5-5-5-5-5-5-5-|-0-0-0-0-0-0-0-0-|-10-10-10-10-10-10-10-10-|
F#|-8-8-8-8-8-8-8-8-|-5-5-5-5-5-5-5-5-|-0-0-0-0-0-0-0-0-|-10-10-10-10-10-10-10-10-|
B |-8-8-8-8-8-8-8-8-|-5-5-5-5-5-5-5-5-|-0-0-0-0-0-0-0-0-|-10-10-10-10-10-10-10-10-|

I will give every breath...
C#|-----------------|-----------------|-----------------|-------------------------|
G#|-----------------|-----------------|-----------------|-------------------------|
E |-----------------|-----------------|-----------------|-------------------------|
B |-8-8-8-8-8-8-8-8-|-5-5-5-5-5-5-5-5-|-0-0-0-0-0-0-0-0-|-10-10-10-10-10-10-10-10-|
F#|-8-8-8-8-8-8-8-8-|-5-5-5-5-5-5-5-5-|-0-0-0-0-0-0-0-0-|-10-10-10-10-10-10-10-10-|
B |-8-8-8-8-8-8-8-8-|-5-5-5-5-5-5-5-5-|-0-0-0-0-0-0-0-0-|-10-10-10-10-10-10-10-10-|

C#|-----------------|-----------------|
G#|-----------------|-----------------|
E |-----------------|-----------------|
B |-8-8-8-8-8-8-8-8-|-5-5-5-5-5-5-5-5-|
F#|-8-8-8-8-8-8-8-8-|-5-5-5-5-5-5-5-5-|
B |-8-8-8-8-8-8-8-8-|-5-5-5-5-5-5-5-5-|

I, I, I'm undefeated...
C#|---------|-----------|----------|------------|
G#|---------|-----------|----------|------------|
E |-7---7---|-7-7---7---|--7---7---|------------|
B |-7-0-7-0-|-7-7-0-7-0-|--7-0-7-0-|-0--0--0----|
F#|-5-0-5-0-|-5-5-0-5-0-|--5-0-5-0-|-0--0--0----|
B |---0---0-|-----0---0-|----0---0-|-0--0--0----|

[Chorus]
I came to fight for the love of the game...
C#|---------|-----------|---------|-------------------|
G#|---------|-----------|---------|-------------------|
E |-7---7---|-7-7---7---|---------|-------------------|
B |-7-0-7-0-|-7-7-0-7-0-|-8-8-8-8-|-5-5-5-5-5/10-10---|
F#|-5-0-5-0-|-5-5-0-5-0-|-8-8-8-8-|-5-5-5-5-5/10-10---|
B |---0---0-|-----0---0-|-8-8-8-8-|-5-5-5-5-5/10-10---|

Off the leash, out of the cage...
C#|---------|-----------|---------|-------------------|
G#|---------|-----------|---------|-------------------|
E |-7---7---|-7-7---7---|---------|-------------------|
B |-7-0-7-0-|-7-7-0-7-0-|-8-8-8-8-|-5-5-5-5-5/10-10---|
F#|-5-0-5-0-|-5-5-0-5-0-|-8-8-8-8-|-5-5-5-5-5/10-10---|
B |---0---0-|-----0---0-|-8-8-8-8-|-5-5-5-5-5/10-10---|

I, I know I can beat it...
C#|---------|-----------|---------|-------------------|
G#|---------|-----------|---------|-------------------|
E |-7---7---|-7-7---7---|---------|-------------------|
B |-7-0-7-0-|-7-7-0-7-0-|-8-8-8-8-|-5-5-5-5-5/10-10---|
F#|-5-0-5-0-|-5-5-0-5-0-|-8-8-8-8-|-5-5-5-5-5/10-10---|
B |---0---0-|-----0---0-|-8-8-8-8-|-5-5-5-5-5/10-10---|

Fight for the love of the game...
C#|---------|-----------|---------|-------------------|
G#|---------|-----------|---------|-------------------|
E |-7---7---|-7-7---7---|---------|-------------------|
B |-7-0-7-0-|-7-7-0-7-0-|-8-8-8-8-|-5-5-5-5-5/10-10---|
F#|-5-0-5-0-|-5-5-0-5-0-|-8-8-8-8-|-5-5-5-5-5/10-10---|
B |---0---0-|-----0---0-|-8-8-8-8-|-5-5-5-5-5/10-10---|

That's why I'm undefeated
C#|---------|-----|
G#|---------|-----|
E |---------|-----|
B |-8-8-8-8-|-5---|
F#|-8-8-8-8-|-5---|
B |-8-8-8-8-|-5---|


************************************

| /    Slide up
| (n)  Ghost note
  

************************************

            
            
Suggest correction
Creating personal tab
Creating personal tab
You can edit any tab online and save it as your Personal.

You can edit, replace or remove any tab part or add personal notes – all changes will be seen only by you.

Personal tabs can be accessed anytime from any device, even offline.
Learn more »
Give kudos to tab author, rate the tab!
1 2 3 4 5
comments
print report bad tab
guest
You may want to rate the tab now too:
select rating
Wanna post a correction for this tab? Suggest correction