Oops, an error
Loading. Please wait.
We have an official Whispers In The Dark tab made by UG professional guitarists. Check out the tab »
×
by Skillet
9,423 views 15 this week
5 commentsread comments
1 2 3 4 5
x 6
add to favorites
×
Save as Personal and add changes to this tab that will be seen only by you. Learn more ›
×
You can save this tab as Personal to edit and correct it or add notes. All changes will be seen only by you. Learn more »
launch autoscroll
font size
0
reset
how to read this tab
guitar tuner
backing track
0:00
0:00
edit
Autoscroll
slow
fast
+/-
esc
set tempo
stop
'Whispers In The Dark Solo' by Skillet on the Comatose album
tuning: Drop B
Tabbed by: panterarocks25
Guitarest: Ben Kasica

I am pretty sure this is exactly how he does it, i watched many videos so i could
get this right... please comment to let me know if you think it's wrong.

/ - slide
h - hammer-on
p - pull-off
~ - vibrato

C#]---------12----------------------------12----------------------------12-|
G#]-10-8-10----10-8-10p8-6-8p6-5--10-8-10----10-8-10p8-6-8p6-5--10-8-10----|
E ]------------------------------------------------------------------------|
B ]------------------------------------------------------------------------|
F#]------------------------------------------------------------------------|
B ]------------------------------------------------------------------------|

C#]--------------------------------------------------------20----------------|
G#]-10-8-10-13p11-9-11p9-7-9p7-5-7p5-3~--5--6--8---10--13-----20-18-20p18-17-|
E ]--------------------------------------7b-8b-10b-12b-15b-------------------|
B ]--------------------------------------------------------------------------|
F#]--------------------------------------------------------------------------|
B ]--------------------------------------------------------------------------|


C#]-20---------------------------------------------------------------------------|
G#]----20-18-20p18-17-------------------------------------------10h11h113-/15~~--|
E ]------------------------------------------------------7h9h10------------------|
B ]---------------------------------7h9h10--------7h9h10-------------------------|
F#]--------------------------7h9h10--------7h9h10--------------------------------|
B ]-------------------7h9h10-----------------------------------------------------|


C#]-20----------------20------------------|
G#]----20-18-20p18-17----20-18-20p18-17~~-|
E ]---------------------------------------|
B ]---------------------------------------|
F#]---------------------------------------|
B ]---------------------------------------|

after that go back to the intro... and if you want me to put the whole song up just
comment on this and tell and i will
Suggest correction
Creating personal tab
Creating personal tab
You can edit any tab online and save it as your Personal.

You can edit, replace or remove any tab part or add personal notes – all changes will be seen only by you.

Personal tabs can be accessed anytime from any device, even offline.
Learn more »
comments
print report bad tab
5 comments total. Showing first comments.
-2 reply
hardtofind581 17 Jul 08, 2016 05:01 PM

put up the whole song

-1 reply
Adrenaline16 62 Jul 15, 2016 07:29 PM

What's with your name though?? I mean pantera does rock but you post a skillet song with a name like that

guest
You may want to rate the tab now too:
select rating
Wanna post a correction for this tab? Suggest correction