Oops, an error
Loading. Please wait.
We have an official Whispers In The Dark tab made by UG professional guitarists. Check out the tab »
×
by Skillet
7,721 views 3 this week
no commentswrite comment
1 2 3 4 5
x 4
add to favorites
×
Save as Personal and add changes to this tab that will be seen only by you. Learn more ›
×
You can save this tab as Personal to edit and correct it or add notes. All changes will be seen only by you. Learn more »
launch autoscroll
font size
0
reset
how to read this tab
guitar tuner
backing track
0:00
0:00
edit
Autoscroll
slow
fast
+/-
esc
set tempo
stop
-------------------------------------------------------------------------------
                           Whispers in the Dark - Skillet
-------------------------------------------------------------------------------
Tabbed by: Rulerof52
Email: mdb@bergerhouse.com
Tuning: Drop B

0:00 - Piano Intro
=====================

0:20 - Interlude (x2)
=====================
Guitar 1         
C#|-22-22-22-22-17-17-17-17-18-18-18-18-17-17-17-17-|
G#|-------------------------------------------------|
E |-------------------------------------------------|

C#|-13-13-13-13-12-12-13-13-12-12-12-12-10-10-10-10-|
G#|-------------------------------------------------|
E |-------------------------------------------------|

Guitar 2
C#|-------------------------------------------------|
G#|-------------------------------------------------|
E |-------------------------------------------------|
B |-0----0-0-0-0-00-3-0--2-2-22--0000---------------|
F#|-0----0-0-0-0-00-3-0--2-2-22--0000---------------|
B |-0----0-0-0-0-00-3-0--2-2-22--0000---------------|

0:31 - Verse     (x9)
=====================
C#|-----------------------|
G#|-----------------------|
E |-----------------------|
B |-0-0-0---0--0--2-2-2-2-|
F#|-0-0-0---0--0--2-2-2-2-|
B |-0-0-0---0--0--2-2-2-2-|
    . .           . . . . 

0:54 - Chorus    (x2)
=====================
C#|--------------------------------|
G#|-----------------11-------------|
E |-7---------------x--------------|
B |-x--0--xx-0-0-0--8--8--xx-8-8-8-|
F#|-5--0--xx-0-0-0-----8--xx-8-8-8-|
B |----0--xx-0-0-0-----8--xx-8-8-8-|
          ..              ..

C#|-----------------------------------------------------------------|
G#|-----------------------------------------------------------------|
E |-----------------------------------------------------------------|
B |-5-5-5-5-5-5-5-5-5-5-5-5-5-5-5-5-3-3-3-3-3-3-3-3-2-2-2-2-2-2-2-2-|
F#|-5-5-5-5-5-5-5-5-5-5-5-5-5-5-5-5-3-3-3-3-3-3-3-3-3-3-3-3-3-3-3-3-|
B |-5-5-5-5-5-5-5-5-5-5-5-5-5-5-5-5-3-3-3-3-3-3-3-3-2-2-2-2-2-2-2-2-|
    . . . .   . .   . . . .   . . . . . . .   . .   . . . .   . .

1:14 - Interlude (x2)
=====================
Guitar 1         
C#|-22-22-22-22-17-17-17-17-18-18-18-18-17-17-17-17-|
G#|-------------------------------------------------|
E |-------------------------------------------------|

C#|-13-13-13-13-12-12-13-13-12-12-12-12-10-10-10-10-|
G#|-------------------------------------------------|
E |-------------------------------------------------|

Guitar 2
C#|-------------------------------------------------|
G#|-------------------------------------------------|
E |-------------------------------------------------|
B |-0----0-0-0-0-00-3-0--2-2-22--0000---------------|
F#|-0----0-0-0-0-00-3-0--2-2-22--0000---------------|
B |-0----0-0-0-0-00-3-0--2-2-22--0000---------------|

1:24 - Verse     (x9)
=====================
C#|-----------------------|
G#|-----------------------|
E |-----------------------|
B |-0-0-0---0--0--2-2-2-2-|
F#|-0-0-0---0--0--2-2-2-2-|
B |-0-0-0---0--0--2-2-2-2-|
    . .           . . . . 

1:47 - Chorus    (x2)
=====================
C#|--------------------------------|
G#|-----------------11-------------|
E |-7---------------x--------------|
B |-x--0--xx-0-0-0--8--8--xx-8-8-8-|
F#|-5--0--xx-0-0-0-----8--xx-8-8-8-|
B |----0--xx-0-0-0-----8--xx-8-8-8-|
          ..              ..

C#|-----------------------------------------------------------------|
G#|-----------------------------------------------------------------|
E |-----------------------------------------------------------------|
B |-5-5-5-5-5-5-5-5-5-5-5-5-5-5-5-5-3-3-3-3-3-3-3-3-2-2-2-2-2-2-2-2-|
F#|-5-5-5-5-5-5-5-5-5-5-5-5-5-5-5-5-3-3-3-3-3-3-3-3-3-3-3-3-3-3-3-3-|
B |-5-5-5-5-5-5-5-5-5-5-5-5-5-5-5-5-3-3-3-3-3-3-3-3-2-2-2-2-2-2-2-2-|
    . . . .   . .   . . . .   . . . . . . .   . .   . . . .   . .

2:08 - Bridge    
===================== 
Guitar 1
C#|---------12-------------------12---------------------12------8---|
G#|-10-8-10----10-8-10-6-10-8-10----10p8-6\8p6-5-10-8-10---10-8---8-|
E |-----------------------------------------------------------------|
B |-----------------------------------------------------------------|
F#|-----------------------------------------------------------------|
B |-----------------------------------------------------------------|

C#|-8p6\5-6p5\3-5p3\1-3p1\0---/8-/10-/12-/13-/17~-20----------------|
G#|--------------------------------------------------20-18-20p18-17-|
E |-----------------------------------------------------------------|
B |-----------------------------------------------------------------|
F#|-----------------------------------------------------------------|
B |-----------------------------------------------------------------|

C#|-20----------------------------------------------------------12~-|
G#|---20-18-20p18-17-----------------------------------10h11-13-----|
E |------------------------------------7h9-10-/9h10-12--------------|
B |-----------------------------7h8-10------------------------------|
F#|-----------------------------------------------------------------|
B |-----------------------------------------------------------------|

C#|-20--------------20---------------20~~~----|
G#|---20-18-20p18-17--20-18-20p18-17----------|
E |-------------------------------------------|
B |-------------------------------------------|
F#|-------------------------------------------|
B |-------------------------------------------|

Guitar 2
C#|---------------------------------------------------------|
G#|---------------------------------------------------------|
E |---------------------------------------------------------|
B |-8-8-8-8-8-8-8-8-10-10-10-10-10-10-10-10-0-0-0-0-0-0-0-0-|
F#|-8-8-8-8-8-8-8-8-10-10-10-10-10-10-10-10-0-0-0-0-0-0-0-0-|
B |-8-8-8-8-8-8-8-8-10-10-10-10-10-10-10-10-0-0-0-0-0-0-0-0-|

C#|--------------------------------------------|
G#|--------------------------------------------|
E |--------------------------------------------|
B |-10-10-10-10-10-10-10-10-8-8-8-8-8-8-8-8-10-|
F#|-10-10-10-10-10-10-10-10-8-8-8-8-8-8-8-8-10-|
B |-10-10-10-10-10-10-10-10-8-8-8-8-8-8-8-8-10-|

Guitar 3
C#|-------8-----------------8-------------------8-------------------|
G#|-6-5-6---6-5-6p5-3-6-5-6---6p5-3-5p3-1-6-5-6---6-5-8-5----10p8\6-|
E |-----------------------------------------------------------------|
B |-----------------------------------------------------------------|
F#|-----------------------------------------------------------------|
B |-----------------------------------------------------------------|

C#|--------------------------------------20----------------20-------|
G#|-8p6\5-6p5\3-5p3\1--/5-/6-/8-/10-/13-----20-18-20p18-17----20-18-|
E |-----------------------------------------------------------------|
B |-----------------------------------------------------------------|
F#|-----------------------------------------------------------------|
B |-----------------------------------------------------------------|

C#|-----------------------------------------------------------------|
G#|-20p18-17-----------------------------------------------10h11-13-|
E |---------------------------------9h10-12-7h9-10-9h10-12----------|
B |--------------------------7h8-10---------------------------------|
F#|------------0h3-5-/7h8-10----------------------------------------|
B |-----------------------------------------------------------------|

C#|-17h18-20-20~--20----------------20----------------|
G#|------------------20-18-20p18-17----20-18-20p18-17-|
E |---------------------------------------------------|
B |---------------------------------------------------|
F#|---------------------------------------------------|
B |---------------------------------------------------|

2:23 - Interlude (x2)
=====================
Guitar 1         
C#|-22-22-22-22-17-17-17-17-18-18-18-18-17-17-17-17-|
G#|-------------------------------------------------|
E |-------------------------------------------------|

C#|-13-13-13-13-12-12-13-13-12-12-12-12-10-10-10-10-|
G#|-------------------------------------------------|
E |-------------------------------------------------|

Guitar 2
C#|-------------------------------------------------|
G#|-------------------------------------------------|
E |-------------------------------------------------|
B |-0----0-0-0-0-00-3-0--2-2-2-0--0000--------------|
F#|-0----0-0-0-0-00-3-0--2-2-2-0--0000--------------|
B |-0----0-0-0-0-00-3-0--2-2-2-0--0000--------------|

2:33 - Interlude (x2)
=====================
C#|-----------------------------------|
G#|-----------------------------------|
E |-----------------------------------|
B |-8-7-8-10-8-7-8-7-8-7-8-10-8-7-8-7-|
F#|-----------------------------------|
B |-----------------------------------|

2:38 - Chorus    (x2)
=====================
Guitar 1
C#|--------------------------------|
G#|-----------------11-------------|
E |-7---------------x--------------|
B |-x--0--xx-0-0-0--8--8--xx-8-8-8-|
F#|-5--0--xx-0-0-0-----8--xx-8-8-8-|
B |----0--xx-0-0-0-----8--xx-8-8-8-|
          ..              ..

C#|-----------------------------------------------------------------|
G#|-----------------------------------------------------------------|
E |-----------------------------------------------------------------|
B |-5-5-5-5-5-5-5-5-5-5-5-5-5-5-5-5-3-3-3-3-3-3-3-3-2-2-2-2-2-2-2-2-|
F#|-5-5-5-5-5-5-5-5-5-5-5-5-5-5-5-5-3-3-3-3-3-3-3-3-3-3-3-3-3-3-3-3-|
B |-5-5-5-5-5-5-5-5-5-5-5-5-5-5-5-5-3-3-3-3-3-3-3-3-2-2-2-2-2-2-2-2-|
    . . . .   . .   . . . .   . . . . . . .   . .   . . . .   . .

Guitar 2
C#|-22-22-22-22-17-17-17-17-18-18-18-18-17-17-17-17-|
G#|-------------------------------------------------|
E |-------------------------------------------------|

C#|-22-22-22-22-17-17-17-17-18-18-18-18-17-17-17-17-|
G#|-------------------------------------------------|
E |-------------------------------------------------|

C#|-22-22-22-22-17-17-17-17-18-18-18-18-17-17-17-17-|
G#|-------------------------------------------------|
E |-------------------------------------------------|

C#|-13-13-13-13-12-12-13-13-12~-|
G#|-----------------------------|
E |-----------------------------|

3:09 - Interlude (x2)
=====================
C#|---------------------------------|
G#|---------------------------------|
E |---------------------------------|
B |-7-5-7-8-7-5-7-5-7-5-7-8-7-5-7-5-|
F#|---------------------------------|
B |---------------------------------|

3:14 - Ending    (x2)
=====================
Guitar 1
C#|--------------------------------|
G#|--------------------------------|
E |--------------------------------|
B |-7-5-7-8-7-5-7-8-7-8-10-8-7-8-7-|
F#|--------------------------------|
B |--------------------------------|

C#|--------------------------------|
G#|--------------------------------|
E |--------------------------------|
B |-7-5-7-8-7-5-7-8-7-8-10-8-7-8-7-|
F#|--------------------------------|
B |--------------------------------|

Guitar 1
Guitar 2
C#|---------------------------------|
G#|---------------------------------|
E |---------------------------------|
B |-7-5---5---------7-5---5---------|
F#|-----8---8-7-8-7-----8---8-7-8-7-|
B |---------------------------------|
 
C#|---------------|
G#|---------------|
E |---------------|
B |-0-0-0---0-0-0-|
F#|-0-0-0---0-0-0-|
B |-0-0-0---0-0-0-|

| /  slide up
| \  slide down
| h  hammer-on
| p  pull-off
| ~  vibrato
| x  Mute note
| .  palm mute
===============================================================================
Suggest correction
Creating personal tab
Creating personal tab
You can edit any tab online and save it as your Personal.

You can edit, replace or remove any tab part or add personal notes – all changes will be seen only by you.

Personal tabs can be accessed anytime from any device, even offline.
Learn more »
comments
print report bad tab
guest
You may want to rate the tab now too:
select rating
Wanna post a correction for this tab? Suggest correction