Oops, an error
Loading. Please wait.

Yours To Hold bass

version 1
version 1

Whole song

Interactive

by Skillet
4,275 views 1 this week
2 commentsread comments
1 2 3 4 5
x 3
add to favorites
×
Save as Personal and add changes to this tab that will be seen only by you. Learn more ›
×
You can save this tab as Personal to edit and correct it or add notes. All changes will be seen only by you. Learn more »
launch autoscroll
font size
0
reset
guitar tuner
edit
Autoscroll
slow
fast
+/-
esc
set tempo
stop
Well yet again no one had tabbed this

Its really easy to play so I'll tab it for bass just so you can know how to play (PS I'm 
on an album tab for Comatose so If anyone has the full tab for the song Cmatose please 
it to me at lemurs4mangos@comcast.net)

Normal Tuning

Verse  (Bass Actually starts at chorus but its nice to play the first verse with the 
too)

G|-----------------------|----------------------|---------------------------
D|-----------------------|---------------2------|---------------------------
A|--0--------------------|----------------------|0--------------------------
E|----------------------3|0------------------3--|------------------------3--
  I see you standing here But you’re so far away Starving for your attention

|---------------------------|----------------------------|
|---------------2-----------|------------------------2---|
|-----------------------1---|----------------------------|
|0--------------------------|0---------------------------|
 You don’t even know my name You’re going through so much

|----------------------------------------------|
|----------------------------------------------|
|----------------------------------------------|
|----------------2--------------3--------------|
 But I know that I could be the one to hold you

Chorus

|----------------|---------------------|----------------------|
|----------------|---------------------|------------2---------|
|0---------------|---------------------|----------------------|
|----------------|3--------------------|0--------------------3|
 Every single day I find it hard to say I could be yours alone

|--------------------|----------------------|-------------------|
|--------------------|----------------------|-------2-----------|
|0-------------------|----------------------|-------------------|
|--------------------|3---------------------|0-----------------3|
 You will see someday That all along the way I was yours to hold

|-------------------|
|-------------------|
|------------------0|
|-------------------|
 I was yours to hold

Verse

|--------------------|---------------------------------|
|--------------------|------------------2--------------|
|0-------------------|---------------------------------|
|-------------------3|0------------------------------3-|
 I see you walking by Your hair always hiding your face

|--------------------------------|----------------------------|
|--------------------------------|------------------2---------|
|0-------------------------------|----------------------------|
|---------------------------3----|0--------------------------3|
 I wonder why you’ve been hurting I wish I had some way to say

|----------------------------|
|-------------------------2--|
|----------------------------|
|0---------------------------|
 You’re going through so much

|-------------------------------------------------|
|-------------------------------------------------|
|-------------------------------------------------|
|--------------------2-------------3--------------|
 Don’t you know that I will be the one to hold you

Chorus x1

Bridge

|-------------------------------------------|---------------|
|---------------------------------------2---|---------------|
|-------------------------------------------|---------------|
|3-------------------------0----------------|--------------3|
 I’m stretching but you’re just out of reach You should know

|----------------------------------|----------------------------------|
|---------------------------------2|----------------------------------|
|----------------------------------|----------------------------------|
|----------------------0-----------|2-----------------------3---------|
 I’m ready when you’re ready for me And I’m waiting for the right time

|----------------------------|---------------|----------------------|
|--------2-------------------|---------------|---------2------------|
|----------------------------|---------------|----------------------|
|-------------------------3--|2----------3---|------------------3---|
 For the day I catch your eye To let you know That I’m yours to hold

Chorus x2
Suggest correction
Creating personal tab
Creating personal tab
You can edit any tab online and save it as your Personal.

You can edit, replace or remove any tab part or add personal notes – all changes will be seen only by you.

Personal tabs can be accessed anytime from any device, even offline.
Learn more »
Give kudos to tab author, rate the tab!
1 2 3 4 5
comments
print report bad tab
2 comments total.
0 reply
Endophilus 31 Oct 11, 2009 12:17 PM

I believe your roots are wrong.

They should be D, G, B, A, G respectively.

Some of your tab matches, but a few notes sound abstract...

0 reply
Lemurs4mangos 1,616 Oct 11, 2009 02:17 PM

Okay, I'll see what I can do about it

guest
You may want to rate the tab now too:
select rating
Wanna post a correction for this tab? Suggest correction