Oops, an error
Loading. Please wait.

Yours To Hold solo tab

version 1
version 1

Solo

Whole song

Interactive

by Skillet
8,867 views 1 this week
6 commentsread comments
1 2 3 4 5
x 4
add to favorites
×
Save as Personal and add changes to this tab that will be seen only by you. Learn more ›
×
You can save this tab as Personal to edit and correct it or add notes. All changes will be seen only by you. Learn more »
launch autoscroll
font size
0
reset
how to read this tab
guitar tuner
edit
Autoscroll
slow
fast
+/-
esc
set tempo
stop
Author
Difficulty
Yours to Hold Postchorus Solo
Skillet

Tabbed By-Chris Hecox
Email-Chris_Hecox1@hotmail.com

Tuning-Standard eBGDAE

Ok, so I know someone already tabbed this song in chords, and they are great, but I have 
the little solo after the first chorus. This is my first tab but I'm positive it is 
so comment or wte.

e|-------------------------------------------------------------------------|
B|---9------------9-------------9------------------------------------------|
G|-7---7-9-11br--7---7-6-7-8br--7---7-9-11br--11~-9~-7~--------------------|
D|-------------------------------------------------------------------------|
A|-------------------------------------------------------------------------|
E|-------------------------------------------------------------------------|

If you don't like it then tell me how it should be haha.

| b  bend
| ~  vibrato

            
            
Suggest correction
Creating personal tab
Creating personal tab
You can edit any tab online and save it as your Personal.

You can edit, replace or remove any tab part or add personal notes – all changes will be seen only by you.

Personal tabs can be accessed anytime from any device, even offline.
Learn more »
comments
print report bad tab
6 comments total. Showing first comments.
0 reply
LetterBomb) 10 Oct 16, 2007 02:40 PM

actually i thinks it's supposed to be like this

B|---10------------10-------------10---------------------------------
G|-7---7-9-11br--7---7-6-7-8br--7---7-9-11br--11~-9~-7~--------------

0 reply
cjb2293 397 Oct 18, 2007 02:10 PM

i agree that it should be the 10's

0 reply
Kingforaday 10 Jan 14, 2008 01:52 AM

yeah... lol... i see im not the only one who noticed the Ab instead of..well... the A... but ok. nicely done otherwise
though.. thx

guest
You may want to rate the tab now too:
select rating
Wanna post a correction for this tab? Suggest correction