Oops, an error
Loading. Please wait.

Burning Power tab

31 views 1 this week
no commentswrite comment
1 2 3 4 5
3 more votes to show rating
add to favorites
×
Save as Personal and add changes to this tab that will be seen only by you. Learn more ›
×
You can save this tab as Personal to edit and correct it or add notes. All changes will be seen only by you. Learn more »
launch autoscroll
font size
0
reset
how to read this tab
guitar tuner
edit
Autoscroll
slow
fast
+/-
esc
set tempo
stop
       Skin Chamber
    - Burning Power - 
          Wound

 tabbed by PelzR (07-28-2015)


This is the song "Burning Power" by the industrial metal band 'Skin Chamber' from their first record "Wound".
There isn't much to say, the song doesn't have much riffs and it isn't difficult to play. One thing I'd like
to mention is there are some minor lead parts (during Riff 3) I'm not bothered to tab because it's most some
chromatic stuff.

Tuning: Standard E (E A D G B e)


Riff 1 - 144 BPM

    E E E E H 3x E E E E E E Q  
e|-------------|---------------||
B|-------------|---------------||
G|o-----------o|---------------||
D|o-----------o|---------------||
A|----------7--|---------------||
E|--4-4-4-4-5--|-4-4-4-5-7-6-5-||
    . . . .      . . . . . . 


Riff 2 - 155 BPM

   E E E E E E E E    E E E E E E E E
e|-----------------||-----------------||
B|-----------------||-----------------||
G|-------------R---||-------------R---||
D|-----------------||-----------------||
A|-----------5---5-||-----------7---7-||
E|-0-0-3-0-0-3---3-||-0-0-3-0-0-5---5-||
   . . . . .          . . . . .     


Riff 3 - 155 BPM

    E S S E S S E S S E S S 3x W    W
e|---------------------------|---|-----||
B|---------------------------|---|-----|| 
G|o-------------------------o|---|-----|| the last two bars
D|o-------------------------o|---|-----|| are some disharmonic noises
A|---------------------------|-1-|-(1)-|| not sure about...
E|--0-0-0-0-0-0-0-0-0-0-0-0--|-3-|-(3)-|| 
    . . . . . . . . . . . .


Riff 4 - 155 BPM

   E S S E S S E S S E S S   E S S E S S E E E E   E S S E S S E S S E S S   E S S E S S E E E E
e|-------------------------|---------------------|-------------------------|---------------------||
B|-------------------------|---------------------|-------------------------|---------------------||
G|-------------------------|-----------------R---|-------------------------|-----------------R---||
D|-------------------------|---------------------|-------------------------|---------------------||
A|-------------------------|---------------5---5-|-------------------------|---------------7---7-||
E|-0-0-0-0-0-0-0-0-0-0-0-0-|-0-0-0-0-0-0-0-3---3-|-0-0-0-0-0-0-0-0-0-0-0-0-|-0-0-0-0-0-0-0-5---5-||
   . . . . . . . . . . . .   . . . . . . .         . . . . . . . . . . . .   . . . . . . .


Riff 5 - 155 BPM

   W    W
e|---|-----||
B|---|-----||
G|---|-----|| disharmonic noises
D|---|-----|| not quite sure...
A|-1-|-(1)-||
E|-3-|-(3)-||




Structure:
-------------
Riff 1  12x
Riff 2  12x
Riff 3   6x
Riff 1  12x
Riff 2  12x
Riff 4   4x
Riff 5   1x


Description:
-------------
o   -> repeat
o
.   -> palm mute
R   -> rest
(x) -> let ring

W   -> whole notes
H   -> half notes
Q   -> quarter notes
E   -> 8th notes
S   -> 16th notes

            
            
Suggest correction
Creating personal tab
Creating personal tab
You can edit any tab online and save it as your Personal.

You can edit, replace or remove any tab part or add personal notes – all changes will be seen only by you.

Personal tabs can be accessed anytime from any device, even offline.
Learn more »
Give kudos to tab author, rate the tab!
1 2 3 4 5
comments
print report bad tab
guest
You may want to rate the tab now too:
select rating
Wanna post a correction for this tab? Suggest correction