Oops, an error
Loading. Please wait.

Babylon Tab

version 2
version 2

Whole song

563 views 1 this week
no commentswrite comment
1 2 3 4 5
please rate
add to favorites
launch autoscroll
font size
0
reset
how to read this tab
guitar tuner
Tab Pro tools
  • play this tab
  • loop segment
  • change instrument
  • show fretboard
  • metronome
×
Best way to learn
"Babylon"
Autoscroll
slow
fast
+/-
esc
set tempo
stop
Contributor
DROPPED C TUNING

INTRO

Track 1
                                                    
       S  E   S  E     E     S               E       S   E   E   
D||---10-10--10-10----10----10--------------10------10--10--10----||
A||---13-13--13-13b--(15)--(15)-------------13pbr--(13)-13--13----||
F||*----------------------------------------12pbr--(13)-12--12--*-||
C||*------------------------------------------------------------*-||
G||---------------------------------------------------------------||
C||---------------------------------------------------------------||

Note: gradually bend up both the 2nd and 3rd strings (3rd string at 12th fret), 
but only hit the 3rd string when releasing the bend.


PRE VERSE
 
 
   C5  F#5 D#5  A#5 C5    A#5 C5            C5  F#5 D#5                     
   E.  E.  E    S   S  S  S   S  S  S  S    E.  E.  E   S S S S S S S S     
-----------------------------------------|--------------------------------||
-----------------------------------------|--------------------------------||
*----------------------------------------|------------------------------*-||
*--0---6---3s--10--12-12-10--12-12-12-12-|--0---6---3-------------------*-||
---0---6---3s--10--12-12-10--12-12-12-12-|--0---6---3---------------------||
---0---6---3s--10--12-12-10--12-12-12-12-|--0---6---3---3-5-6-3-5-6-3-5---||


VERSE
 
 
  H        Q     Q          H        Q     Q        
----------------13pbr----|-------------------------|
-------------------------|----------------13pbr----|
-------------------------|-------------------------|
-------------------------|-------------------------|
-------------------------|-------------------------|
-------------------------|-------------------------|


PRE CHORUS

 
 
  C5  F#5 D#5  A#5 C5    A#5 C5            C5  F#5 D#5                  
  E.  E.  E    S   S  S  S   S  S  S  S    E.  E.  E   S S S S S S S S  
----------------------------------------|------------------------------|
----------------------------------------|------------------------------|
----------------------------------------|------------------------------|
--0---6---3s--10--12-12-10--12-12-12-12-|--0---6---3-------------------|
--0---6---3s--10--12-12-10--12-12-12-12-|--0---6---3-------------------|
--0---6---3s--10--12-12-10--12-12-12-12-|--0---6---3---3-5-6-3-5-6-3-5-|
 
 
  C5  F#5 D#5  A#5 C5    A#5 C5            C5  F#5 D#5              
                                                       PM PM PM     
  E.  E.  E    S   S  S  S   S  S  S  S    E.  E.  E   E  E  E  E   
----------------------------------------|--------------------------|
----------------------------------------|--------------------------|
----------------------------------------|--------------------------|
--0---6---3s--10--12-12-10--12-12-12-12-|--0---6---3---0--0--0-----|
--0---6---3s--10--12-12-10--12-12-12-12-|--0---6---3---0--0--0-----|
--0---6---3s--10--12-12-10--12-12-12-12-|--0---6---3---0--0--0-----|


CHORUS
 
 
    S E  S E  S E  S E  S S S S    S E  S E  S E  S S S S S E      
|-------------------------------|--------------------------------||
|-------------------------------|--------------------------------||
|*------------------------------|------------------------------*-||
|*------------------------------|------------------------------*-||
|-------------------------------|---------------------------4----||
|---3-0--3-0--3-0--3-0--2-2-0-2-|--3-0--3-0--3-0--6-3-0-3-0------||
 
 
  C5 D#5 C5 F#5 C5 D#5 C5 C#5         C5 D#5 C5 F#5 C5 D#5 C5 C#5       
  PM     PM     PM     PM             PM     PM     PM     PM           
  S  E   S  E   S  E   S  E.  E  S    S  E   S  E   S  E   S  E.  E  S  
-----------------------------------|-----------------------------------|
-----------------------------------|-----------------------------------|
-----------------------------------|-----------------------------------|
--0--3---0--6---0--3---0--1--------|--0--3---0--6---0--3---0--1--------|
--0--3---0--6---0--3---0--1--------|--0--3---0--6---0--3---0--1--------|
--0--3---0--6---0--3---0--1--------|--0--3---0--6---0--3---0--1--------|


BREAK


 
  D#5 F5 F#5 D#5 F5 F#5 D#5                                 
  PM  PM PM  PM  PM PM  PM  PM    PM PM PM PM PM PM PM PM   
  E   E  E   E   E  E   E   E     E  E  E  E  E  E  E  E    
-------------------------------|--------------------------||
-------------------------------|--------------------------||
-------------------------------|--------------------------||
--3---5--6---3---5--6---3---5--|--3--5--6--3--5--6--3--5--||
--3---5--6---3---5--6---3---5--|--3--5--6--3--5--6--3--5--||
--3---5--6---3---5--6---3---5--|--3--5--6--3--5--6--3--5--||
 

These are all of the parts required to play the song!
 
 
Duration Legend
---------------
W - whole
H - half
Q - quarter
E - 8th
S - 16th
T - 32nd
X - 64th
. - note dotted
|-n-|  - n-tuplets
 
 
Tablature Legend
----------------
L - tied note
x - dead note
g - grace note
(n) - ghost note
> - accentuded note
NH - natural harmonic
AH - artificial harmonic
TH - tapped harmonic
SH - semi harmonic
PH - pitch harmonic
h - hammer on
p - pull off
b - bend
br - bendRelease
pb - preBend
pbr - preBendRelease
brb - bendReleaseBend
\n/ - tremolo bar dip
\n - tremolo bar dive
-/n - tremolo bar Release up
/n\ - tremolo bar inverted dip
/n - tremolo bar return
-\n - tremolo bar Release down
S - shift slide
s - legato slide
/ -  slide into from below or out of upwards
\ -  slide into from above or out of downwards
~ - vibrato
W - wide vibrato
tr - tril'
TP - tremolo picking
T - tapping
S - slap
P - pop
< - fade in
^ - brush up
v - brush down
comments
We did not receive enough feedback on this tab! Please rate:
print report bad tab
1 2 3 4 5
I want to post or [tab]
guest
You may want to rate the tab now too:
select rating
Please do not post tabs as comments. Select "correction" instead!