Oops, an error
Loading. Please wait.

Falling Down Bass Tab

1,011 views 1 this week
no commentswrite comment
1 2 3 4 5
please rate
add to favorites
launch autoscroll
font size
0
reset
guitar tuner
Autoscroll
slow
fast
+/-
esc
set tempo
stop
Help us to improve Ultimate-Guitar.com Take our survey!
×
Author
-------------------------------------------------------------------------------
			    Falling Down - Skindred
-------------------------------------------------------------------------------

Tabbed By : Hot-Pyro
e-mail: burn2live.live2burn@hotmail.com

Tuning: Drop D (DADG)

Intro

(0:09)
G|---------------------------------------------------------------------------|
D|---------------------------------------------------------------------------|
A|--6-3-------------------6-3------------------------------------------------| x2
D|--------4-333-3-0-1-2-3-------3-444-4-0-1-3-4------------------------------|

Verse 1

(0:20)
G|---------------------------------------------------------------------------|
D|---------------------------------------------------------------------------|
A|--6-3-------------------6-3------------------------------------------------| x4
D|--------4-333-3-0-1-2-3-------3-444-4-0-1-3--------------------------------|

Pre-Chorus 1

(0:41)
G|---------------------------------------------------------------------------|
D|---------------------------------------------------------------------------|
A|---------------------------------------------------------------------------|x2
E|--4-0-3-0-4-0-4/66666---4-0-3-0-4/666/999----------------------------------|

Chorus

(0:51)
G|----------------------------------------|
D|----------------------------------------|
A|4-4-4-4-3-3-----------------------------| x4
E|------------6666--3-3-3-3/-6-6/13131313-|

Verse 2

(1:17)
G|---------------------------------------------------------------------------|
D|---------------------------------------------------------------------------|
A|--6-3-------------------6-3------------------------------------------------| x4
D|--------4-333-3-0-1-2-3-------3-444-4-0-1-3-4------------------------------|

Pre-Chorus 2

(1:38)
G|---------------------------------------------------------------------------|
D|---------------------------------------------------------------------------|
A|---------------------------------------------------------------------------|x2
E|--4-0-3-0-4-0-4/66666---4-0-3-0-4/666/999----------------------------------|

Chorus 2

(1:48)
G|----------------------------------------|
D|----------------------------------------|
A|4-4-4-4-3-3-----------------------------| x4
E|------------6666--3-3-3-3/-6-6/13131313-|

Bridge 

(2:08)
G|----------------------------------|
D|----------------------------------|
A|----------------------------------| x3
D|--4x3-0-xx-xx---4x3-0/666666------|

Chorus 3

(2:27)
G|-------------------|
D|-------------------|
A|-------------------|
D|--33333/666/131313-|

(2:29)
G|----------------------------------------|
D|----------------------------------------|
A|4-4-4-4-3-3-----------------------------| x7
E|------------6666--3-3-3-3/-6-6/13131313-|

Outro

(3:05)
G|----------|
D|----------|
A|----------|
D|--4x3-0---|


| /  slide up
| \  slide down
| h  hammer-on
| p  pull-off
| b  bend
| ~  let ring
| +  harmonic
| x  Mute note
===============================================================================
Suggest correction
Give kudos to tab author, rate the tab!
1 2 3 4 5
comments
print report bad tab
guest
You may want to rate the tab now too:
select rating
Wanna post a correction for this tab? Suggest correction