Oops, an error
Loading. Please wait.

Falling Down Tab

841 views 1 this week
1 commentread comment
1 2 3 4 5
please rate
add to favorites
launch autoscroll
font size
0
reset
how to read this tab
guitar tuner
Tab Pro tools
  • play this tab
  • loop segment
  • change instrument
  • show fretboard
  • metronome
×
Best way to learn
"Falling Down"
Autoscroll
slow
fast
+/-
esc
set tempo
stop
Tab by: Kurtz A(kurtz22@hotmail.com)
Skindred: Falling Down
Drop D tuning

intro/verse
(Heavy Overdrive)
E--2--------|-2-------2---|  Vocals, Heavy Bass and Drums Follows......
B----2--3---|---2--3------|
G---------4-|-------------|
D-----------|-------------|
A-----------|-------------|
D-----------|-------------|

   There's a whole in my head........

pre chorus:
E--------------|---------------------|
B--------------|---------------------|
G--------------|---------------------|
D-5x4x0-/-777--|--5x4x0-/-77-/-1010--|
A-5x4x0-/-777--|--5x4x0-/-77-/-1010--|
D-5x4x0-/-777--|--5x4x0-/-77-/-1010--|
  (Heavy Sreams)

chorus:
(heavy strumming w/ heavy overdrive)
E---------------------------------------------|
B---------------------------------------------|
G-------------13-13-13-13---------------------|  (its easy to play, just 
D-12-12-12-12-11-11-11-11-4-4-4-4--7-7-7-7----|    watch for the changes
A-12-12-12-12-11-11-11-11-4-4-4-4--7-7-7-7----|     in the chorus)
D-12-12-12-12-11-11-11-11-4-4-4-4--7-7-7-7----|

   I will not fall for you..................

end Riff...
E----------------|
A----------------|
G--7-------------|
D--5-4-0---------|
A--5-4-0--pause--|
D--5-4-0---------|



*Well thats all it is for this song feel free to correct me(kurtz22@hotmail.com), its up
to you to figure out the song structure, its easy so have fun playin it its a great song.
and SKINDRED ROCKS!!!
comments
We did not receive enough feedback on this tab! Please rate:
print report bad tab
1 2 3 4 5
1 comment total.
0 reply
B_Spike wrote on April 30 2011, 01:08 pm

-----------|
-----------|
---3------3|
-----------|
-----------|
5-7---5-7--|

Just wanted to add in the interlude, the part starting at about 2:25 "Not falling down for you...."

I want to post or [tab]
guest
You may want to rate the tab now too:
select rating
Please do not post tabs as comments. Select "correction" instead!