Oops, an error
Loading. Please wait.

Kiss And Make Up Tab

version 2
version 2

Whole song

292 views 3 this week
no commentswrite comment
1 2 3 4 5
please rate
add to favorites
launch autoscroll
font size
0
reset
how to read this tab
guitar tuner
Tab Pro tools
  • play this tab
  • loop segment
  • change instrument
  • show fretboard
  • metronome
×
Best way to learn
"Kiss And Make Up"
Autoscroll
slow
fast
+/-
esc
set tempo
stop
Contributor
 Tuning: drop D - E|-- (as far as i know. it sounds about perfect to me}
                  B|--
                  G|--
                  D|--
                  A|--
                  D|--

   \: slide down
   /: slide up
 ~~~: let ring
   h: hammer-on
   p:pull-off

============================================================================

--There is an effect before every intro part, I dont know wheather it's guitar with 
or how to play it so I left it out--


[Intro]
|-------------------------------------------------------------------|
|-------------------------------------------------------------------|
|-------------------------------------------------------------------|
|--0-5-5-5h6p5-0---0-8--0-6--0-9--0-5-5-5h6p5-0---0-8-08-08-6-09-09-|
|--0-5-5-5h6p5-0---0-8--0-6--0-9--0-5-5-5h6p5-0---0-8-08-08-6-09-09-|
|--0-5-5-5h6p5-0---0-8--0-6--0-9--0-5-5-5h6p5-0---0-8-08-08-6-09-09-|

--[Play 2x]--

============================================================================


[Verse]
|------------------------------------------------------------------|
|------------------------------------------------------------------|
|------------------------------------------------------------------|
|----8-8---8-8---8---8-8---8-8---8---8-8---8-8---8---8-8---8-8---8-|
|------------------------------------------------------------------|
|--8-----6-----9---8-----6-----9---8-----6-----9---8-----6-----9---|

--[Play 2x]--


============================================================================


[Verse part 2]
|------------------------------------------------------------|
|------------------------------------------------------------|
|------------------------------------------------------------|
|--0-3-5-6-5-0---6-5-0-6-5-0---0-3-5-6-5-0---0-3-5-6-5-0-6-8-|
|--0-3-5-6-5-0---6-5-0-6-5-0---0-3-5-6-5-0---0-3-5-6-5-0-6-8-|
|--0-3-5-6-5-0---6-5-0-6-5-0---0-3-5-6-5-0---0-3-5-6-5-0-6-8-|


|------------------------------------------------------------|
|------------------------------------------------------------|
|------------------------------------------------------------|
|--0-3-5-6-5-0---0-3-5-6-5-0---0-3-5-6-5-0---0-3-5-6-5-0-6-8-|
|--0-3-5-6-5-0---0-3-5-6-5-0---0-3-5-6-5-0---0-3-5-6-5-0-6-8-|
|--0-3-5-6-5-0---0-3-5-6-5-0---0-3-5-6-5-0---0-3-5-6-5-0-6-8-|


============================================================================


[Verse part 3]
|------------------------------------------------------------------------|
|------------------------------------------------------------------------|
|--------------10-10-------------10-10-------------10-10-----------------|
|--0-3-5-6-5-0-------6-5-0-6-5-0-------0-3-5-6-5-0-------0-3-5-6-5-0-6-8-|
|--0-3-5-6-5-0-------6-5-0-6-5-0-------0-3-5-6-5-0-------0-3-5-6-5-0-6-8-|
|--0-3-5-6-5-0-------6-5-0-6-5-0-------0-3-5-6-5-0-------0-3-5-6-5-0-6-8-|


|------------------------------------------------------------------------|
|------------------------------------------------------------------------|
|--------------10-10-------------10-10-------------10-10-----------------|
|--0-3-5-6-5-0-------0-3-5-6-5-0-------0-3-5-6-5-0-------0-3-5-6-5-0-6-8-|
|--0-3-5-6-5-0-------0-3-5-6-5-0-------0-3-5-6-5-0-------0-3-5-6-5-0-6-8-|
|--0-3-5-6-5-0-------0-3-5-6-5-0-------0-3-5-6-5-0-------0-3-5-6-5-0-6-8-|


============================================================================


[Chorus]
|-------------------------------------------------|
|-------------------------------------------------|
|-------------------------------------------------|
|---------------3---3---------------3---3---------|
|--3---3\2/3-----------3---3\2/3-------------4----|
|------------6----3--------------3---5---6--------|

--[Play 2x]--


============================================================================


[2nd Verse]
|------------------------------------------------------------------------|
|------------------------------------------------------------------------|
|--------------10-10-------------10-10-------------10-10-----------------|
|--0-3-5-6-5-0-------6-5-0-6-5-0-------0-3-5-6-5-0-------0-3-5-6-5-0-6-8-|
|--0-3-5-6-5-0-------6-5-0-6-5-0-------0-3-5-6-5-0-------0-3-5-6-5-0-6-8-|
|--0-3-5-6-5-0-------6-5-0-6-5-0-------0-3-5-6-5-0-------0-3-5-6-5-0-6-8-|


|------------------------------------------------------------------------|
|------------------------------------------------------------------------|
|--------------10-10-------------10-10-------------10-10-----------------|
|--0-3-5-6-5-0-------0-3-5-6-5-0-------0-3-5-6-5-0-------0-3-5-6-5-0-6-8-|
|--0-3-5-6-5-0-------0-3-5-6-5-0-------0-3-5-6-5-0-------0-3-5-6-5-0-6-8-|
|--0-3-5-6-5-0-------0-3-5-6-5-0-------0-3-5-6-5-0-------0-3-5-6-5-0-6-8-|


============================================================================


[2nd Verse part 2]
|------------------------------------------------|
|------------------------------------------------|
|------------------------------------------------|
|------------------------------------------------|
|------------------------------------------------|
|--3-5-5-6-5-3-5-6-5-3-3---3-5-5-6-5-3-5-6-5-3-3-|

--[Play 2x]--


============================================================================


[Chorus]
|-------------------------------------------------|
|-------------------------------------------------|
|-------------------------------------------------|
|---------------3---3---------------3---3---------|
|--3---3\2/3-----------3---3\2/3-------------4----|
|------------6----3--------------3---5---6--------|

--[Play 2x]--


============================================================================


[Intro]
|-------------------------------------------------------------------|
|-------------------------------------------------------------------|
|-------------------------------------------------------------------|
|--0-5-5-5h6p5-0---0-8--0-6--0-9--0-5-5-5h6p5-0---0-8-08-08-6-09-09-|
|--0-5-5-5h6p5-0---0-8--0-6--0-9--0-5-5-5h6p5-0---0-8-08-08-6-09-09-|
|--0-5-5-5h6p5-0---0-8--0-6--0-9--0-5-5-5h6p5-0---0-8-08-08-6-09-09-|

--[Play 2x]--


============================================================================


--split these chords up very slightly when you strum--

[2nd Verse]
|--------------------------------|
|--9---9---9---9---9---9---9---9-|
|--8---7---8---7---8---7---8---7-|
|--6---6---6---6---6---6---6---6-|
|--------------------------------|
|--------------------------------|


--This is the part that Benji starts to screem in--
|-------------------------------------------|
|-------------------------------------------|
|-------------------------------------------|
|--8-0h8-0h8-6-0h9-0h9--8-0h8-0h8-6-0h9-0h9-|
|--8-0h8-0h8-6-0h9-0h9--8-0h8-0h8-6-0h9-0h9-|
|--8-0h8-0h8-6-0h9-0h9--8-0h8-0h8-6-0h9-0h9-|

--[Play 4x]--


============================================================================


[Chorus]
|------------------------------------|
|------------------------------------|
|------------------------------------|
|---------------3---3----------------|
|--3---3\2/3-----------3---3\2/3-----|
|------------6----3--------------6~~~|


|-------------------------------------------------|
|-------------------------------------------------|
|-------------------------------------------------|
|---------------3---3---------------3---3---------|
|--3---3\2/3-----------3---3\2/3-------------4----|
|------------6----3--------------3---5---6--------|

--[Play 2x]--


|--------------------------------------------------|
|--------------------------------------------------|
|--5-5---5\4/5----------5-5---5\4/5------------6~~~|
|--5-5---5\4/5--6---3---5-5---5\4/5--3---5--6--6~~~|
|--3-3---3\2/3--6---3---3-3---3\2/3--3---5--6--4~~~|
|---------------6---3----------------3---5--6------|

--[Play 2x]--

============================================================================

[End of song]
comments
We did not receive enough feedback on this tab! Please rate:
print report bad tab
1 2 3 4 5
I want to post or [tab]
guest
You may want to rate the tab now too:
select rating
Please do not post tabs as comments. Select "correction" instead!